» » »

Carpenters, We've Only Just Begun Bass tabs (ver.1)

Artists:  A B C D E F G H I J K L M N O P Q R S T U V W X Y Z # 

We've Only Just Begun Bass tabs (ver.1)

Carpenters Tabs
 Rating:
4/5 (4 votes)
We've Only Just Begun lessons Tabs too difficult? Try these video lessons and learn fast
1
                carpenters_we've only just begun

TablEdited by Jan Bjorklund   
You are welcome to request for tabs!
Fingering and positions as suggested by TablEdit, please use common sense.


TablEdited by Jan Bjorklund
Tuning : E A D G 	Time Signature: 4/4

 |               |               |               |                
|--------13------18----------------------------------------------|
|----------------------------------------------------------------|
|----------------------------------------------------------------|
|----------------------------------------------------------------|

 |               |               |               |                
|11------18------23------------------------------11--------------|
|----------------------------------------------------------------|
|----------------------------------------------------------------|
|----------------------------------------------------------------|

 |               |               |               |                
|10--------------17--------------------------------------10------|
|----------------------------------------------------------------|
|----------------------------------------------------------------|
|----------------------------------------------------------------|

 |               |               |               |                
|3-------10------15------22------15------------------------------|
|----------------------------------------------------------------|
|----------------------------------------------------------------|
|----------------------------------------------------------------|

 |               |               |               |                
|--------3-------8-----------------------------------------------|
|1-----------------------------------------------1---------------|
|----------------------------------------------------------------|
|----------------------------------------------------------------|

 |               |               |               |                
|--------------------------------3-------------------------------|
|----------------3-----------------------------------------------|
|1-----------------------------------------------1---------------|
|----------------------------------------------------------------|

 |               |               |               |                
|----------------3-----------------------------------------------|
|1-----------------------------------------------1---------------|
|----------------------------------------------------------------|
|----------------------------------------------------------------|

 |               |               |               |                
|1-----------------------13------15------18------18------13------|
|----------------------------------------------------------------|
|----------------------------------------------------------------|
|----------------4-----------------------------------------------|

 |               |               |               |                
|--------13------18----------------------------------------------|
|----------------------------------------------------------------|
|----------------------------------------------------------------|
|----------------------------------------------------------------|

 |               |               |               |                
|11------18------23------------------------------11--------------|
|----------------------------------------------------------------|
|----------------------------------------------------------------|
|----------------------------------------------------------------|

 |               |               |               |                
|10--------------17--------------------------------------10------|
|----------------------------------------------------------------|
|----------------------------------------------------------------|
|----------------------------------------------------------------|

 |               |               |               |                
|3-------10------15------22------15------------------------------|
|----------------------------------------------------------------|
|----------------------------------------------------------------|
|----------------------------------------------------------------|

 |               |               |               |                
|--------3-------8-----------------------------------------------|
|1-----------------------------------------------1---------------|
|----------------------------------------------------------------|
|----------------------------------------------------------------|

 |               |               |               |                
|--------------------------------3-------------------------------|
|----------------3-----------------------------------------------|
|1-----------------------------------------------1---------------|
|----------------------------------------------------------------|

 |               |               |               |                
|----------------3-----------------------------------------------|
|1-----------------------------------------------1---------------|
|----------------------------------------------------------------|
|----------------------------------------------------------------|

 |               |               |               |                
|1-----------------------13------15------18------18------13------|
|----------------------------------------------------------------|
|----------------------------------------------------------------|
|----------------4-----------------------------------------------|

 |               |               |               |                
|--------1-------------------------------------------------------|
|--------------------------------4---------------4---4-----------|
|4---------------------------------------------------------------|
|----------------------------------------------------------------|

 |               |               |               |                
|--------1-----------------------------------------------1-------|
|--------------------------------4---------------4---4-----------|
|4---------------------------------------------------------------|
|----------------------------------------------------------------|

 |               |               |               |                
|3---------------3-----------------------------------------------|
|--------------------------------1-------------------------------|
|----------------------------------------------------------------|
|----------------------------------------------------------------|

 |               |               |               |                
|----------------3-----------------------------------------------|
|--------------------------------1---------------1---------------|
|1---------------------------------------------------------------|
|----------------------------------------------------------------|

 |               |               |               |                
|----------------3-----------------------------------------------|
|--------------------------------1-------------------------------|
|1---------------------------------------------------------------|
|----------------------------------------------------------------|

 |               |               |               |                
|------------------------3---------------------------------------|
|--------------------------------1---------------1---------------|
|1---------------------------------------------------------------|
|----------------------------------------------------------------|

 |               |               |               |                
|--------------------------------0-----------------------0-------|
|0-----------------------0---------------------------------------|
|----------------------------------------------------------------|
|----------------------------------------------------------------|

 |               |               |               |                
|--------------------------------0-----------------------0-------|
|0-----------------------0---------------------------------------|
|----------------------------------------------------------------|
|----------------------------------------------------------------|

 |               |               |               |                
|--------------------------------0-----------------------0-------|
|0-----------------------0---------------------------------------|
|----------------------------------------------------------------|
|----------------------------------------------------------------|

 |               |               |               |                
|1-----------------------1---------------------------------------|
|----------------------------------------------------------------|
|----------------------------------------------------------------|
|----------------------------------------------------------------|

 |               |               |               |                
|1-------------------------------------------------------1-------|
|----------------------------------------1-------1---------------|
|----------------------------------------------------------------|
|--------------------------------4-------------------------------|

 |               |               |               |                
|--------13------18----------------------------------------------|
|----------------------------------------------------------------|
|----------------------------------------------------------------|
|----------------------------------------------------------------|

 |               |               |               |                
|11------18------23------------------------------11--------------|
|----------------------------------------------------------------|
|----------------------------------------------------------------|
|----------------------------------------------------------------|

 |               |               |               |                
|10--------------17--------------------------------------10------|
|----------------------------------------------------------------|
|----------------------------------------------------------------|
|----------------------------------------------------------------|

 |               |               |               |                
|3-------10------15------22------15------------------------------|
|----------------------------------------------------------------|
|----------------------------------------------------------------|
|----------------------------------------------------------------|

 |               |               |               |                
|--------3-------8-----------------------------------------------|
|1-----------------------------------------------1---------------|
|----------------------------------------------------------------|
|----------------------------------------------------------------|

 |               |               |               |                
|--------------------------------3-------------------------------|
|----------------3-----------------------------------------------|
|1-----------------------------------------------1---------------|
|----------------------------------------------------------------|

 |               |               |               |                
|----------------3-----------------------------------------------|
|1-----------------------------------------------1---------------|
|----------------------------------------------------------------|
|----------------------------------------------------------------|

 |               |               |               |                
|1-----------------------13------15------18------18------13------|
|----------------------------------------------------------------|
|----------------------------------------------------------------|
|----------------4-----------------------------------------------|

 |               |               |               |                
|--------1-------------------------------------------------------|
|--------------------------------4---------------4---4-----------|
|4---------------------------------------------------------------|
|----------------------------------------------------------------|

 |               |               |               |                
|--------1-----------------------------------------------1-------|
|--------------------------------4---------------4---4-----------|
|4---------------------------------------------------------------|
|----------------------------------------------------------------|

 |               |               |               |                
|3---------------3-----------------------------------------------|
|--------------------------------1-------------------------------|
|----------------------------------------------------------------|
|----------------------------------------------------------------|

 |               |               |               |                
|----------------3-----------------------------------------------|
|--------------------------------1---------------1---------------|
|1---------------------------------------------------------------|
|----------------------------------------------------------------|

 |               |               |               |                
|----------------3-----------------------------------------------|
|--------------------------------1-------------------------------|
|1---------------------------------------------------------------|
|----------------------------------------------------------------|

 |               |               |               |                
|------------------------3---------------------------------------|
|--------------------------------1---------------1---------------|
|1---------------------------------------------------------------|
|----------------------------------------------------------------|

 |               |               |               |                
|--------------------------------0-----------------------0-------|
|0-----------------------0---------------------------------------|
|----------------------------------------------------------------|
|----------------------------------------------------------------|

 |               |               |               |                
|--------------------------------0-----------------------0-------|
|0-----------------------0---------------------------------------|
|----------------------------------------------------------------|
|----------------------------------------------------------------|

 |               |               |               |                
|--------------------------------0-----------------------0-------|
|0-----------------------0---------------------------------------|
|----------------------------------------------------------------|
|----------------------------------------------------------------|

 |               |               |               |                
|1-----------------------1---------------------------------------|
|----------------------------------------------------------------|
|----------------------------------------------------------------|
|----------------------------------------------------------------|

 |               |               |               |                
|------------------------------------------------1---------------|
|----------------------------------------------------------------|
|----------------------------------------------------------------|
|--------------------------------4-------------------------------|

 |               |               |               |                
|--------------------------------------------------------1-------|
|------------------------------------------------1---------------|
|----------------------------------------3-----------------------|
|----------------------------------------------------------------|

 |               |               |               |                
|--------13------18----------------------------------------------|
|----------------------------------------------------------------|
|----------------------------------------------------------------|
|----------------------------------------------------------------|

 |               |               |               |                
|11------18------23------------------------------11--------------|
|----------------------------------------------------------------|
|----------------------------------------------------------------|
|----------------------------------------------------------------|

 |               |               |               |                
|10--------------17--------------------------------------10------|
|----------------------------------------------------------------|
|----------------------------------------------------------------|
|----------------------------------------------------------------|

 |               |               |               |                
|3-------10------15------22------15------------------------------|
|----------------------------------------------------------------|
|----------------------------------------------------------------|
|----------------------------------------------------------------|

 |               |               |               |                
|--------3-------8-----------------------------------------------|
|1-----------------------------------------------1---------------|
|----------------------------------------------------------------|
|----------------------------------------------------------------|

 |               |               |               |                
|--------------------------------3-------------------------------|
|----------------3-----------------------------------------------|
|1-----------------------------------------------1---------------|
|----------------------------------------------------------------|

 |               |               |               |                
|----------------3-----------------------------------------------|
|1-----------------------------------------------1---------------|
|----------------------------------------------------------------|
|----------------------------------------------------------------|

 |               |               |               |                
|1-----------------------13------15------18------18------13------|
|----------------------------------------------------------------|
|----------------------------------------------------------------|
|----------------4-----------------------------------------------|

 |               |               |               |                
|----------------------------------------------------------------|
|----------------------------------------------------------------|
|----------------------------------------------------------------|
|----------------------------------------------------------------|

 |               |               |               |                
|----------------------------------------------------------------|
|----------------------------------------------------------------|
|----------------------------------------------------------------|
|----------------------------------------------------------------|

 |               |               |               |                
|6-------------------------------10------------------------------|
|----------------------------------------------------------------|
|----------------------------------------------------------------|
|----------------------------------------------------------------|

 |               |               |               |                
|1---------------------------------------------------------------|
|----------------------------------------------------------------|
|------------------------------------------------4---------------|
|----------------------------------------------------------------|

 |               |               |               |                
|----------------------------------------------------------------|
|----------------------------------------------------------------|
|----------------------------------------------------------------|
|----------------------------------------------------------------|

 |               |               |               |                
|----------------------------------------------------------------|
|----------------------------------------------------------------|
|----------------------------------------------------------------|
|----------------------------------------------------------------|
            
Submit corrections

comments powered by Disqus
↑ Back to top | Carpenters Bass for We've Only Just Begun. Lyrics for acoustic guitar and electric guitar. 1 Tablatures and chords are parodies/interpretations of the original songs. You may use it for private study, scholarship, research or language learning purposes only