>
 >
The End Of The World Intro

The End Of The World Intro Guitar Tabs

Carpenters - The End Of The World Intro chords, tabs, tablatures, lyrics

Guitar lessons | Add/correct | Request | Top 50 tabs Artists:  A B C D E F G H I J K L M N O P Q R S T U V W X Y Z 0-9

The End Of The World Intro Guitar Tabs – Carpenters

CD, Sheet music, Poster

Do you like The End Of The World Intro? Share with your friends now
Tabs
----0--------------------------------------------------------------------|
----1---1-------------------------------------1--------------------------|
--------2---2---0------------2-------0--------0----0---------------------|
--------2---2-------4---4--------4--------0--------0---------------------|
----0---------------5----------------------------------------------------|
-------------------------------------3-----------------------------------|

------------------------------------0-----------------------------------|
-----0-----------0--------------0---------3------------3----------------|
-----0--------0-----2---0---------------------2-----2-----2-------2-----|
----------0-----------------0------------0-------0------------0---------|
------------------------------------------------------------------------|
-----3----------------------------------2-------------------------------|

------------------------------------------------------------------------|
-----------------------------------1----0-------------------------------|
---0-----------0---------------0-----------------2---------------2------|
-------0----2------4--2----------------------0-------0--------0---------|
----------------------------------------2------------------2------------|
---0-----------------------0--------------------------------------------|

------------0--------0-------------0---2--------------------------------|
------------3----3--------------3------3----------3------3----------0---|
---2-------------2------------2--------4-------4------4--2-------1------|
--------2-----------------2-----------------4----------------0---0------|
---0-----------------------------------2--------------------------------|
---------------------------------------------------------0--------------|

---0-------------------------------------------------------------------|
---1-------3---------1---0---------0-----------------------------5-----|
---0-------0---------0----------2------5-------5--------------5--------|
-------2-------0----2-----------2----------7-------7---5---5-----------|
---0-------2-------3----------4--------6---------------5---------------|
-----------------------------------------------------------------------|

------------------------------0----------------------------------------|
---0---------0------------0----------3-------------3-------------------|
---0-------0----2--0---------------------2-----2-------2-------2-------|
--------0-------------0-------------0-------0--------------0-----------|
-----------------------------------------------------------------------|
---3-------------------------------2-----------------------------------|

------------------------------------------------------------------------|
-----------------------------------1-----0------------------------------|
---0-----------0---------------0-----------------2---------------2------|
--------0---2------4--2-----------------------0------0--------0---------|
-----------------------------------------2-----------------2------------|
---0-----------------------0--------------------------------------------|

-----------0--------0-----------0---2-----------------------------------|
-----------3----3-------------3-----3----------3------3------------0----|
--2-------------2----------2--------4-------4-----4---2---------1-------|
-------2-----------------2---------------4-----------------0----0-------|
--0---------------------------------2-----------------------------------|
------------------------------------------------------0-----------------|

---0--------------------------------------------------------------------|
---1----1----------------------------------------1-------0--------------|
---2------------2---0--------0---2-------0-------0-------0----------0---|
-------------2----------4--------------------0-----2--2------0----------|
---0---------------------5---------------------------------------2------|
-----------------------------------------3------------------------------|

-----------------------------0--0----------------------------------------|
--------------------1---1----1--1-------3---0--------------------0---1---|
-----------0---0----0---0--------------0----------0-----------0------0---|
---2---2------------2---2-------------0--------0---0-------0-------------|
---3----------------0----------------------------------------------------|
-------------------------------------3------------------3----------------|

-----------------------------0---------------------------------------2--|
-----------1-------------3---------3---------------------------3-----3--|
--------0--------5---5-------------0-------0-----0----------0--------2--|
------2----------4---------------------0-------0---------0--------------|
---0-------------5---------------------------------------------------2--|
-----------------------------------3-----------------3------------------|

-------------------------------------2---------------------------------|
--------------3--0--3-------0---3----3-----------3--0--3------0--------|
---------2----2--2--2-------2---2------------2---2--2--2------1--------|
-----0--------0--0--0---0-----------------0----------------0------0----|
-----------------------------------------------------------------------|
-------------------------------------0---------------------------------|

---0-------------------------------------------------------------------|
---1-------3--------1----0-----------0----------------------------5----|
---0-------0--------0----0--------2------5------5--------------5-------|
-------2-------0---2-----2--------2----------7------7---5---5----------|
---0-------2------3-----------4----------6--------------5--------------|
-----------------------------------------------------------------------|

-------------------------------0---------------------------------------|
---0---------0--------------0---------3--------------3-----------------|
---0-------0----2--0----------------------2------2-------2-------2-----|
--------0--------------0-------------0-------0---------------0---------|
-----------------------------------------------------------------------|
---3--------------------------------2----------------------------------|


------------------------------------------------------------------------|
-----------------------------------1-----0------------------------------|
---0-----------0---------------0-----------------2---------------2------|
--------0---2------4--2-----------------------0------0--------0---------|
-----------------------------------------2-----------------2------------|
---0-----------------------0--------------------------------------------|


-----------0--------0-----------0---2-----------------------------------|
-----------3----3-------------3-----3----------3------3------------0----|
--2-------------2----------2--------4-------4-----4---2---------1-------|
-------2-----------------2---------------4-----------------0----0-------|
--0---------------------------------2-----------------------------------|
------------------------------------------------------0-----------------|


---0--------------------------------------------------------------------|
---1----1----------------------------------------1-------0--------------|
---2------------2---0--------0---2-------0-------0-------0----------0---|
-------------2----------4--------------------0-----2--2------0----------|
---0---------------------5---------------------------------------2------|
-----------------------------------------3------------------------------|

----------------------------------------------------------------------|
--------------0----------1----------2-------------------3-------------|
---2----------0----------0----------3-------------------0-------------|
---------2---------0----2-----2-----4-----4------------0--------------|
---3----------2----------0--------------------------------------------|
------------------------------------4----------------3----------------|





Comments


Popular Carpenters tabs & chords
I Need To Be In Love Chords
Sing Chords
Weve Only Just Begun 2 Chords
Yesterday Once More Chords
Yesterday Once More 2 Chords
You Chords
Please Mr Postman Tabs
Superstar Tabs
Sing Sing A Song Ukulele
You Ukulele


Song lyrics



↑ Back to top | Tablatures and chords are parodies/interpretations of the original songs. You may use it for private study, scholarship, research or language learning purposes only
© 2014 AZChords.com Contact us | Privacy policy | DMCA | Add/correct tabs | Request tabs | Top 50 tabs