>
 >
Superstar 1

Superstar 1 Guitar Tabs

Carpenters - Superstar 1 chords, tabs, tablatures, lyrics

Guitar lessons | Add/correct | Request | Top 50 tabs Artists:  A B C D E F G H I J K L M N O P Q R S T U V W X Y Z 0-9

Superstar 1 Guitar Tabs – Carpenters

CD, Sheet music, Poster

Do you like Superstar 1? Share with your friends now
Bass TabsChordsChords v2Chords v3Chords v4TabsTabs v2Ukulele
-------------------------------------------------------------------------------
                             SUPERSTAR - Carpenters
-------------------------------------------------------------------------------

Tuning: E A D G B E


Gtr I (E A D G B E) - 'Piano            '
Gtr II (E A D G B E) - 'Piano'
Gtr III (E A D G B E) - 'Strings             '
Gtr IV (E A D G B E) - 'Oboe                '
Gtr V (E A D G B E) - 'Brass               '
Gtr VI (E A D G B E) - 'Voice'

  Q=90
 4/4
  Gtr I
  W          W           E  E E  E  E E E E     E   E  E  E   E   E  S S  E
|----------|----------|--3----------1---0---|--20---------------------------|
|----------|----------|-------1-------------|-------------------------------|
|----------|----------|-----1----1----1---1-|-------------------------------|
|----------|----------|---------------------|--17------------15-------------|
|----------|----------|---------------------|---------15------------15------|
|----------|----------|--1-------1--1-------|------16----16------16------16-|
|
| Gtr III
| W          W           W                      W
|----------|----------|---------------------|-------------------------------|
|----------|----------|---------------------|-------------------------------|
|----------|----------|---------------------|---1---------------------------|
|----------|----------|--3------------------|---1---------------------------|
|----------|----------|---------------------|-------------------------------|
|----------|----------|---------------------|-------------------------------|
|
| Gtr IV
| W          W           Q.      E  H          +H            +E   E  E    E
|----------|----------|-15------13----------|--------------------15-13---15-|
|----------|----------|------------13-------|-(13)----------(13)------------|
|----------|----------|---------------------|-------------------------------|
|----------|----------|---------------------|-------------------------------|
|----------|----------|---------------------|-------------------------------|
|----------|----------|---------------------|-------------------------------|


   E  E  E  S S   S  S  S S  S S E
|----------------16----15---13-----|
|----------------------------------|
|----------------------------------|
|-15-------------------------------|
|-16----16-------------------------|
|----16----16----------------------|
|
|  W
|----------------------------------|
|--6-------------------------------|
|----------------------------------|
|--6-------------------------------|
|--4-------------------------------|
|----------------------------------|
|
|  E  E  Q       +H
|-16-15-13------(13)---------------|
|----------------------------------|
|----------------------------------|
|----------------------------------|
|----------------------------------|
|----------------------------------|


   E  S S  E  E  E   E  E  E    H      +Q       +S  S E
|----------------------------|--------------------------|
|----------------------------|--------------------------|
|----------------------------|-10-----(10)-----(10)-----|
|-15-15---------13-----10----|-12-----(12)-----(12)-----|
|----18------15-----11----11-|--------------------------|
|-16------16-----------------|--------------------------|
|
|  W                            H      +Q        Q
|----------------------------|--------------------------|
|----------------------------|--------------------------|
|--8-------------------------|--7------(7)--------------|
|--6-------------------------|--6------(6)--------------|
|----------------------------|--------------------------|
|--8-------------------------|--6------(6)--------------|
|
|  E  E    Q    +H             +H      +S  S E   Q
|-13-11----------------------|--------------------------|
|----------9----(9)----------|-(9)-----(9)--------------|
|----------------------------|--------------------------|
|----------------------------|--------------------------|
|----------------------------|--------------------------|
|----------------------------|--------------------------|


  W          W          Q  Q  Q  E S S    E  E E S S E  E  E  S S
|----------|----------|-1----------0-0-|--0------------20----------|
|----------|----------|-1--------------|------------------20-18----|
|----------|----------|-1--------------|---------------17----------|
|----------|----------|----------------|------------------17-15----|
|----------|----------|----------------|---------------------------|
|----------|----------|-1--------------|---------1-----------------|
|
| W          W          W                +W
|----------|----------|----------------|---------------------------|
|----------|----------|----------------|---------------------------|
|----------|----------|----------------|---------------------------|
|----------|----------|----------------|---------------------------|
|----------|----------|----------------|---------------------------|
|----------|----------|-1--------------|-(1)-----------------------|


  E. S S S E E E E S S    E  E E E +E  E    E  E
|-3--------1-----------|-------------------------|
|-1----1-----1---1-----|--4------4-(4)------4----|
|-1--1-------------1---|--5----5------------5----|
|----------------------|--6--6---------6-------6-|
|----------------------|-------------------------|
|-1------------1---1---|-------------------------|
|
| Gtr VI
| Q.       E H           +Q    Q    E  S S +E  E
|-3--------1-----------|------------1------------|
|------------1---------|-(1)-------------4-(4)-6-|
|----------------------|-------------------------|
|----------------------|-------------------------|
|----------------------|-------------------------|
|----------------------|-------------------------|


  E   E    S  S E +E  E S S S S
|--------------------------------|
|-6-------------6-(6)---6--------|
|-6--------6----6-(6)-------6----|
|-----6---------6-(6)-6----------|
|--------------------------------|
|---------------9-(9)------------|
|
| S E   S +S  S E +H
|--------------------------------|
|--------------------------------|
|--------------------------------|
|---6---6-(6)---6-(6)------------|
|--------------------------------|
|--------------------------------|


   E E S S E S S E  E    E     Q      E  E  E  E E S S
|----------------4-----------|-------------------------|
|----------------4-------4---|-----------9-------9-----|
|--8---5---------------------|-7---------7-------7-----|
|-10-6-------6------6--------|-6------6--------6-------|
|-11-------------------------|-------------------------|
|--8-------------------------|-6------6-----6------8---|
|
|  H         E   E +S  S S S   E S S +E  E +H
|----------------------------|-------------------------|
|----------------6-(6)-4---6-|-------------------------|
|----------------------------|-------------------------|
|----------------------------|-6---6-(6)-6-(6)---------|
|----------------------------|-------------------------|
|----------------------------|-------------------------|


   E  E  S S  E E  E  E  S S
|-----------------------------|
|-------------9---------------|
|-10---------10------10-------|
|-11---------11------11-------|
|-11----11--------11----11----|
|--9--9---------9-------------|
|
| +E  E  Q      E  E  E  E
|-----------------------------|
|-----------------------------|
|-----------------------------|
|-(6)-----------------6--8----|
|------------------8----------|
|-----------------------------|


   E  E S S  E  E S S  S S S S   Q.   S S E E S E.   E.   S S S E E  E E S S
|------------------------------|------------3------|-3----------1-------------|
|--8---------8-----------------|------1---------4--|-1------1-----1----1------|
|--8----8----8----8------------|-------------------|-1----1--------------1----|
|-10-10-----10-10-----10-------|-------------------|--------------------------|
|------------------------------|-3-----------------|--------------------------|
|--8---------8-------------8-3-|-------------------|-1---------------1---1----|
|
| Gtr II
|  W                             W                   E  E   E   E E  E E E
|------------------------------|-------------------|-1------1-----1----1------|
|------------------------------|-------------------|-1------1-----1----1------|
|------------------------------|-------------------|-1--1-------1----1---1----|
|------------------------------|-------------------|--------------------------|
|------------------------------|-------------------|--------------------------|
|------------------------------|-------------------|-1----------1-1-----------|
|
| Gtr III
|  W                             W                   H            Q.     E
|------------------------------|-------------------|--------------3------1----|
|------------------------------|-------------------|-1------------------------|
|------------------------------|-------------------|--------------------------|
|------------------------------|-------------------|--------------------------|
|------------------------------|-------------------|--------------------------|
|------------------------------|-------------------|--------------------------|


  E E E E +E  E E E   E E S S E +E  E S S S S    E E S S E S S E E E
|-------------------|-------------------------|----------------4------|
|-4-----4-(4)---4---|-6-------6-(6)---6-------|----------------4---4--|
|-5---5---------5---|-6---6---6-(6)-------6---|--8---5----------------|
|-6-6---------6---6-|---6-----6-(6)-6---------|-10-6-------6-----6----|
|-------------------|-------------------------|-11--------------------|
|-------------------|---------9-(9)-----------|--8--------------------|
|
| E E E E  E  E E E   E E E   E  E  E E   E      E E E   E S S E E E
|-1-----------------|-------------------------|-----------------------|
|-1---4----4----4---|-6---6------6----6-------|--4---4-----4-----4----|
|---1-5----5----5---|-6---6------6----6-------|--5---5-----5-----5----|
|-------6-----6---6-|---6-----6-----6-----6---|----6-----6-----6---6--|
|-------------------|-------------------------|-----------------------|
|-------------------|-------------------------|-----------------------|
|
| W                   W                          W
|-------------------|-------------------------|--4--------------------|
|-1-----------------|-6-----------------------|--4--------------------|
|-------------------|-------------------------|-----------------------|
|-1-----------------|-6-----------------------|--6--------------------|
|-------------------|-4-----------------------|--3--------------------|
|-------------------|-------------------------|-----------------------|


  Q   E E E E E S S    E E  S S  E E  E  E  S S
|-------------------|---------------------------|
|-------9-----9-----|------------9--------------|
|-7-----7-----7-----|-10--------10------10------|
|-6---6-----6-------|-11--------11------11------|
|-------------------|-11---11--------11----11---|
|-6---6---6-----8---|--9-9---------9------------|
|
| E E E E E E E E      E E  E    E E  E  E  S S
|-------------------|---------------------------|
|-----6---6---6-----|--6----6------6-----6------|
|-7---7---7---7-----|--6----6------6-----6------|
|---6---6---6---6---|--6-6-------6----6-----6---|
|-------------------|---------------------------|
|-------------------|---------------------------|
|
| W                    W
|-------------------|---------------------------|
|-3-----------------|--6------------------------|
|-------------------|--6------------------------|
|-6-----------------|--6------------------------|
|-------------------|--4------------------------|
|-6-----------------|---------------------------|


   E  E S S  E  E  S S  S S  S S
|--------------------------------|
|--8---------8-------------------|
|--8----8----8-----8-------------|
|-10-10-----10-10------10--------|
|--------------------------------|
|--8---------8---------------8-3-|
|
|  E  E E    E  E  E    E    E
|--------------------------------|
|--8----8-------8-------8--------|
|--8----8-------8-------8--------|
|----10-----10----10--------10---|
|--------------------------------|
|--------------------------------|
|
|  W
|--------------------------------|
|--4-----------------------------|
|--3-----------------------------|
|--------------------------------|
|--3-----------------------------|
|--------------------------------|


  Q.     E +S  S E   S E.         Q  S E   S  E E E S S
|-8--------------3-------------|--1----1------3---1-----|
|----------------------1-------|--2----2------4---2-----|
|-5------5-(5)-----------------|--1--1--------3---1-1---|
|------------------------------|------------------------|
|--------------------3---------|------------------------|
|-8------8-(8)-----------------|------------------------|
|
| Q    E E  S  E   S S S  S  S    Q  S S S S  Q   E S S
|-8----8-----------------------|--4------4----3---------|
|-8----8----6--4---6---4-------|--6------6----4---6---6-|
|-8----9-------5---5------5----|--5--5---5----3---6---6-|
|-----10-----------------------|------------------6---6-|
|------------------------------|--4-----------3---------|
|-8----------------------------|------------------6-----|
|
| H         Q        S S  S  S    Q  Q        Q   Q
|----------------------3--6--9-|-13----------11---9-----|
|-4------------------4-6--9-13-|-16---------------------|
|-3----------------------------|------------------------|
|------------------------------|------------------------|
|-3----------------------------|------------------------|
|------------------------------|------------------------|


  E   S S  S  S S S  E  S S S S S  S
|-----------------------------4-------|
|-4-----------9------9----9-----------|
|-5-----------------------------------|
|-6---6----6--6---6--6--6-6-----6-----|
|-------------------------------------|
|-------------------------------------|
|
| S S E   +E    S S +E  E   S S E
|-------------------------------------|
|-----4---(4)-----------4-----4-------|
|-----5---(5)-----6-(6)-5-----5-------|
|---6-----------6-8-(8)-6---6---------|
|-------------------------------------|
|-4-----------------------------4-----|
|
| H                 +Q.         S  S
|-8-----------------(8)---------9-11--|
|-------------------------------------|
|-------------------------------------|
|-------------------------------------|
|-------------------------------------|
|-------------------------------------|


   Q     S S E    E   S S E   S S   E E S S S S +E     E S E   S
|---------------------------------|-----4--------------4---4-----|
|--6-------6------8-------6-------|-4---4-----4-(4)----4---4-----|
|--6-------6------8-------6-------|-5---------6-(6)----5---5-----|
|--6-----6--------8---8---6---6---|-6-6---6---8-(8)----6---6---6-|
|---------------------------------|------------------------------|
|---------------------------------|------------------------------|
|
|  E S S E   S S  S S S S S S S S   Q   S S S S +S   S E S S S S
|----4---4-----3------------------|------------------------------|
|--6-----6------------4-6---------|-4-----4---4-(4)----4---4-----|
|--6-----6----------3---6-----6---|-5---------6-(6)----5---5-----|
|--6--------------------6---6-----|-6---6-----8-(8)----6-6-------|
|--4---------4----3---------------|------------------------------|
|-------------------------6-------|-4-------4----------------4---|
|
|  H              Q       Q         H           +Q..           S
|-13-------------11-------9-------|-8-----------(8)------------9-|
|---------------------------------|------------------------------|
|---------------------------------|------------------------------|
|---------------------------------|------------------------------|
|---------------------------------|------------------------------|
|---------------------------------|------------------------------|


   E S S   E    E    E S S E   S S
|----------------------------------|
|--6-------6---------8-----6-------|
|--6-------6---------8-----6-------|
|----6-----6---------8-8---6---6---|
|----------------------------------|
|----------------------------------|
|
|  E S S   E    S S  E S S S S S S
|------4--------4-3------1-----1---|
|--6---6----------4----1-2-----2---|
|--6---6----------5------3---3-----|
|--6-------------------------------|
|--4-----------------3-----1-------|
|----------------------------------|
|
|  Q      +S  S E    Q     Q
|-13-----(13)-------11-----9-------|
|-16-----(16)----------------------|
|----------------------------------|
|----------------------------------|
|----------------------------------|
|----------------------------------|


  E E E S S S S E S S E   Q  +S  S E +S  S E Q
|-----4---4-------------|----------1-(1)--------|
|-4---4---4---4-----4---|-2--(2)---2-(2)--------|
|-5---5-----------------|-3--(3)---3-(3)--------|
|-6-6-----------6-------|-6--(6)----------------|
|-----------------------|-----------------------|
|-----------------------|-----------------------|
|
| Q   E E   S S E S S E   Q  +S  S E  H
|-----------------------|-----------------------|
|-4-----4---------4-----|-6--(6)----------------|
|-5-----5---------5-----|-3--(3)---3------------|
|-6---6-6-----6---6-----|-----------------------|
|-----------------------|-4--(4)---4------------|
|-4---------4---4-------|-2--(2)---2------------|
|
| W                       W
|-8---------------------|-6---------------------|
|-----------------------|-6---------------------|
|-----------------------|-6---------------------|
|-----------------------|-----------------------|
|-----------------------|-----------------------|
|-----------------------|-2---------------------|


  H              +H        E  E E  E  E E S S E     E  E E E   E   E  S S  E
|-4--------------(4)----|--3----------1---------|---3----------1-------------|
|-6--------------(6)----|-------1---------1-----|--------1------------1------|
|-5--------------(5)----|-----1----1----1-----1-|------1---1-------1-------1-|
|-----------------------|-----------------------|----------------------------|
|-----------------------|-----------------------|----------------------------|
|-----------------------|--1-------1--1---------|----------------------------|
|
|                         Gtr IV
| Q  +S  S  S  S  H        Q.      E  H            +H         +E   E  E    E
|-4--(4)---16-----------|-15------13------------|-----------------15-13---15-|
|-6--(6)------18--------|------------13---------|-(13)-------(13)------------|
|-5--(5)---------17-----|-----------------------|----------------------------|
|-----------------------|-----------------------|----------------------------|
|-4--(4)----------------|-----------------------|----------------------------|
|-----------------------|-----------------------|----------------------------|
|
| W                        W                        W
|-4---------------------|-----------------------|----------------------------|
|-6---------------------|-----------------------|----------------------------|
|-5---------------------|-----------------------|---1------------------------|
|-----------------------|--3--------------------|---1------------------------|
|-4---------------------|-----------------------|----------------------------|
|-----------------------|-----------------------|----------------------------|


   E  E  E S S   S  S  S S  S S E
|--1------------16----15---13-----|
|--2-----2------------------------|
|-----1----1----------------------|
|---------------------------------|
|---------------------------------|
|---------------------------------|
|
| Gtr III
|  W
|---------------------------------|
|--6------------------------------|
|---------------------------------|
|--6------------------------------|
|--4------------------------------|
|---------------------------------|
|
| Gtr IV
|  E  E  Q      +H
|-16-15-13-----(13)---------------|
|---------------------------------|
|---------------------------------|
|---------------------------------|
|---------------------------------|
|---------------------------------|


   E  S S  E  E  E   E  E  E    H      +Q       +S  S E
|----------------------------|--------------------------|
|----------------------------|--------------------------|
|----------------------------|-10-----(10)-----(10)-----|
|-15-15---------13-----10----|-12-----(12)-----(12)-----|
|----18------15-----11----11-|--------------------------|
|-16------16-----------------|--------------------------|
|
|  W                            H      +E    E   Q
|----------------------------|--------------------------|
|----------------------------|--------------------------|
|--8-------------------------|--7------(7)--------------|
|--6-------------------------|--6------(6)--------------|
|----------------------------|--------------------------|
|--8-------------------------|--6------(6)--------------|
|
|  E  E    Q    +H             +H      +S  S E   Q
|-13-11----------------------|--------------------------|
|----------9----(9)----------|-(9)-----(9)--------------|
|----------------------------|--------------------------|
|----------------------------|--------------------------|
|----------------------------|--------------------------|
|----------------------------|--------------------------|


  W          W          Q  Q  Q  E S S    E  E E S S E  E  E  S S
|----------|----------|-1----------0-0-|--0------------20----------|
|----------|----------|-1--------------|------------------20-18----|
|----------|----------|-1--------------|---------------17----------|
|----------|----------|----------------|------------------17-15----|
|----------|----------|----------------|---------------------------|
|----------|----------|-1--------------|---------1-----------------|
|
| W          W          W                +W
|----------|----------|----------------|---------------------------|
|----------|----------|----------------|---------------------------|
|----------|----------|----------------|---------------------------|
|----------|----------|----------------|---------------------------|
|----------|----------|----------------|---------------------------|
|----------|----------|-1--------------|-(1)-----------------------|


  E.   S S S E E E E S S    E  E E E +E  E    E  E
|-3----------1-----------|-------------------------|
|-1------1-----1---1-----|--4------4-(4)------4----|
|-1----1-------------1---|--5----5------------5----|
|------------------------|--6--6---------6-------6-|
|------------------------|-------------------------|
|-1--------------1---1---|-------------------------|
|
| Gtr II
| E  E   E   E E E E E      E  E E E  E  E    E  E
|-1------1-----1---1-----|--1----------------------|
|-1------1-----1---1-----|--1----4----4-------4----|
|-1--1-------1---1---1---|-----1-5----5-------5----|
|------------------------|---------6-----6-------6-|
|------------------------|-------------------------|
|-1----------1-1---------|-------------------------|
|
| Gtr VI
| Q.         E H           +Q    Q    E  S S +E  E
|-3----------1-----------|------------1------------|
|--------------1---------|-(1)-------------4-(4)-6-|
|------------------------|-------------------------|
|------------------------|-------------------------|
|------------------------|-------------------------|
|------------------------|-------------------------|


  E E    S  S E +E  E S S S S
|------------------------------|
|-6-----------6-(6)---6--------|
|-6------6----6-(6)-------6----|
|---6---------6-(6)-6----------|
|------------------------------|
|-------------9-(9)------------|
|
| E E    E    E  E  E E   E
|------------------------------|
|-6------6-------6----6--------|
|-6------6-------6----6--------|
|---6---------6-----6-----6----|
|------------------------------|
|------------------------------|
|
| E S S +S  S E +H
|------------------------------|
|------------------------------|
|------------------------------|
|-6---6-(6)---6-(6)------------|
|------------------------------|
|------------------------------|


   E E S S E S S E  E    E
|----------------4-----------|
|----------------4-------4---|
|--8---5---------------------|
|-10-6-------6------6--------|
|-11-------------------------|
|--8-------------------------|
|
|  E E E   E S S E  E    E
|----------------------------|
|--4---4-----4------4--------|
|--5---5-----5------5--------|
|----6-----6-----6-------6---|
|----------------------------|
|----------------------------|
|
|  H         E   E +S  E   S
|----------------------------|
|----------------6-(6)-4---6-|
|----------------------------|
|----------------------------|
|----------------------------|
|----------------------------|


   Q      E     E E    E  E  S S    E E  S S  E E  E  E  S S
|--------------------------------|----------------------------|
|---------------9---------9------|------------9---------------|
|--7------------7---------7------|-10--------10------10-------|
|--6------6------------6---------|-11--------11------11-------|
|--------------------------------|-11---11--------11----11----|
|--6------6-------6----------8---|--9-9---------9-------------|
|
|  E  E   E     E E    E  E  E      E E  E    E E  E  E  S S
|--------------------------------|----------------------------|
|---------6-------6-------6------|--6----6------6-----6-------|
|--7------7-------7-------7------|--6----6------6-----6-------|
|-10--6---------6------6-----6---|--6-6-------6----6-----6----|
|--------------------------------|----------------------------|
|--------------------------------|----------------------------|
|
|  E.   S S  E.   S E.   +E  E      H           E  E  E  E
|--------------------------------|----------------------------|
|--------------------------------|----------------------------|
|--------------------------------|----------------------------|
|--6----8---10----8-6----(6)-----|--------------------6--8----|
|--------------------------------|-----------------8----------|
|--------------------------------|----------------------------|


   E  E S S  E  E  S S  S S  S S
|--------------------------------|
|--8---------8-------------------|
|--8----8----8-----8-------------|
|-10-10-----10-10------10--------|
|--------------------------------|
|--8---------8---------------8-3-|
|
|  E  E E    E  E  E    E    E
|--------------------------------|
|--8----8-------8-------8--------|
|--8----8-------8-------8--------|
|----10-----10----10--------10---|
|--------------------------------|
|--------------------------------|
|
| Gtr III
|  W
|--------------------------------|
|--------------------------------|
|--------------------------------|
|--------------------------------|
|--------------------------------|
|--------------------------------|


  Q.     S S E E S E.   E.   S S S E E  E E S S
|--------------3------|-3----------1-------------|
|--------1---------4--|-1------1-----1----1------|
|---------------------|-1----1--------------1----|
|---------------------|--------------------------|
|-3-------------------|--------------------------|
|---------------------|-1---------------1---1----|
|
| Q   E  S S E E S E.   E  E   E   E E  E E E
|---------------------|-1------1-----1----1------|
|-8-----13-----8------|-1------1-----1----1------|
|------------------8--|-1--1-------1----1---1----|
|-------10------------|--------------------------|
|---------------------|--------------------------|
|---------------------|-1----------1-1-----------|
|
| W                     H            Q.     E
|---------------------|--------------3------1----|
|---------------------|-1------------------------|
|---------------------|--------------------------|
|---------------------|--------------------------|
|---------------------|--------------------------|
|---------------------|--------------------------|


  E E E E +E  E E E   E E S S E +E  E S S S S    E E S S E S S E E E
|-------------------|-------------------------|----------------4------|
|-4-----4-(4)---4---|-6-------6-(6)---6-------|----------------4---4--|
|-5---5---------5---|-6---6---6-(6)-------6---|--8---5----------------|
|-6-6---------6---6-|---6-----6-(6)-6---------|-10-6-------6-----6----|
|-------------------|-------------------------|-11--------------------|
|-------------------|---------9-(9)-----------|--8--------------------|
|
| E E E E  E  E E E   E E E   E  E  E E   E      E E E   E S S E E E
|-1-----------------|-------------------------|-----------------------|
|-1---4----4----4---|-6---6------6----6-------|--4---4-----4-----4----|
|---1-5----5----5---|-6---6------6----6-------|--5---5-----5-----5----|
|-------6-----6---6-|---6-----6-----6-----6---|----6-----6-----6---6--|
|-------------------|-------------------------|-----------------------|
|-------------------|-------------------------|-----------------------|
|
| W                   W                          W
|-------------------|-------------------------|--4--------------------|
|-1-----------------|-6-----------------------|--4--------------------|
|-------------------|-------------------------|-----------------------|
|-1-----------------|-6-----------------------|--6--------------------|
|-------------------|-4-----------------------|--3--------------------|
|-------------------|-------------------------|-----------------------|


  Q   E E  E  E E S S    E E  S S  E E  E  E  S S
|---------------------|---------------------------|
|-------9-------9-----|------------9--------------|
|-7-----7-------7-----|-10--------10------10------|
|-6---6-------6-------|-11--------11------11------|
|---------------------|-11---11--------11----11---|
|-6---6----6------8---|--9-9---------9------------|
|
| E E E E  E  E E E      E E  E    E E  E  E  S S
|---------------------|---------------------------|
|-----6----6----6-----|--6----6------6-----6------|
|-7---7----7----7-----|--6----6------6-----6------|
|---6---6-----6---6---|--6-6-------6----6-----6---|
|---------------------|---------------------------|
|---------------------|---------------------------|
|
| H       +H             W
|---------------------|---------------------------|
|-3-------(3)---------|--6------------------------|
|-5-------(5)---------|--6------------------------|
|-6-------(6)---------|--6------------------------|
|---------------------|--4------------------------|
|-6-------(6)---------|---------------------------|


   E  E S S  E  E  S S  S S  S S
|--------------------------------|
|--8---------8-------------------|
|--8----8----8-----8-------------|
|-10-10-----10-10------10--------|
|--------------------------------|
|--8---------8---------------8-3-|
|
|  E  E E    E  E  E    E    E
|--------------------------------|
|--8----8-------8-------8--------|
|--8----8-------8-------8--------|
|----10-----10----10--------10---|
|--------------------------------|
|--------------------------------|
|
|  W
|--------------------------------|
|--4-----------------------------|
|--3-----------------------------|
|--------------------------------|
|--3-----------------------------|
|--------------------------------|


  Q.     E +S  S E   S E.         Q  S E   S  E E E S S
|-8--------------3-------------|--1----1------3---1-----|
|----------------------1-------|--2----2------4---2-----|
|-5------5-(5)-----------------|--1--1--------3---1-1---|
|------------------------------|------------------------|
|--------------------3---------|------------------------|
|-8------8-(8)-----------------|------------------------|
|
| Q    E E  S  E   S S S  S  S    Q  S S S S  Q   E S S
|-8----8-----------------------|--4------4----3---------|
|-8----8----6--4---6---4-------|--6------6----4---6---6-|
|-8----9-------5---5------5----|--5--5---5----3---6---6-|
|-----10-----------------------|------------------6---6-|
|------------------------------|--4-----------3---------|
|-8----------------------------|------------------6-----|
|
| H         Q        S S  S  S    Q  Q        Q   Q
|----------------------3--6--9-|-13----------11---9-----|
|-4------------------4-6--9-13-|-16---------------------|
|-3----------------------------|------------------------|
|------------------------------|------------------------|
|-3----------------------------|------------------------|
|------------------------------|------------------------|


  E   S S  S  S S S  E  S S S S S  S
|-----------------------------4-------|
|-4-----------9------9----9-----------|
|-5-----------------------------------|
|-6---6----6--6---6--6--6-6-----6-----|
|-------------------------------------|
|-------------------------------------|
|
| S S E   +E    S S +E  E   S S E
|-------------------------------------|
|-----4---(4)-----------4-----4-------|
|-----5---(5)-----6-(6)-5-----5-------|
|---6-----------6-8-(8)-6---6---------|
|-------------------------------------|
|-4-----------------------------4-----|
|
| H                 +Q.         S  S
|-8-----------------(8)---------9-11--|
|-------------------------------------|
|-------------------------------------|
|-------------------------------------|
|-------------------------------------|
|-------------------------------------|


   Q     S S E    E   S S E   S S   E E S S S S +E     E S E   S
|---------------------------------|-----4--------------4---4-----|
|--6-------6------8-------6-------|-4---4-----4-(4)----4---4-----|
|--6-------6------8-------6-------|-5---------6-(6)----5---5-----|
|--6-----6--------8---8---6---6---|-6-6---6---8-(8)----6---6---6-|
|---------------------------------|------------------------------|
|---------------------------------|------------------------------|
|
|  E S S E   S S  S S S S S S S S   Q   S S S S +S   S E S S S S
|----4---4-----3------------------|------------------------------|
|--6-----6------------4-6---------|-4-----4---4-(4)----4---4-----|
|--6-----6----------3---6-----6---|-5---------6-(6)----5---5-----|
|--6--------------------6---6-----|-6---6-----8-(8)----6-6-------|
|--4---------4----3---------------|------------------------------|
|-------------------------6-------|-4-------4----------------4---|
|
|  H              Q       Q         H           +Q..           S
|-13-------------11-------9-------|-8-----------(8)------------9-|
|---------------------------------|------------------------------|
|---------------------------------|------------------------------|
|---------------------------------|------------------------------|
|---------------------------------|------------------------------|
|---------------------------------|------------------------------|


   E S S E E    E S S E   S S   E E E S S S S E S S E   Q  +S  S E +S  S E Q
|-----------------------------|-----4---4-------------|----------1-(1)---------|
|--6-----6------8-----6-------|-4---4---4---4-----4---|-2--(2)---2-(2)---------|
|--6-----6------8-----6-------|-5---5-----------------|-3--(3)---3-(3)---------|
|----6---6------8-8---6---6---|-6-6-----------6-------|-6--(6)-----------------|
|-----------------------------|-----------------------|------------------------|
|-----------------------------|-----------------------|------------------------|
|
|  E S S E S S  E S S S S S S   Q   E E   S S E S S E   Q  +S  S E  H
|------4---4-3------1-----1---|-----------------------|------------------------|
|--6---6-----4----1-2-----2---|-4-----4---------4-----|-6--(6)-----------------|
|--6---6-----5------3---3-----|-5-----5---------5-----|-3--(3)---3-------------|
|--6--------------------------|-6---6-6-----6---6-----|------------------------|
|--4------------3-----1-------|-----------------------|-4--(4)---4-------------|
|-----------------------------|-4---------4---4-------|-2--(2)---2-------------|
|
|  Q     Q      Q     Q         W                       W
|-13-----------11-----9-------|-8---------------------|-6----------------------|
|-16--------------------------|-----------------------|-6----------------------|
|-----------------------------|-----------------------|-6----------------------|
|-----------------------------|-----------------------|------------------------|
|-----------------------------|-----------------------|------------------------|
|-----------------------------|-----------------------|-2----------------------|


  Q   E    E S S S S S S S S
|----------------------------|
|-4---4------4-------4-------|
|-3---3------3---1---3---1---|
|-6---6----------------------|
|----------------------------|
|----------------------------|
|
| Q  +S  S E E   S S S S E
|-8--(8)---6-----------------|
|----------------4-----------|
|-8--(8)---------------------|
|-6--(6)-------------6-------|
|----------------------------|
|----------------------------|
|
| W
|----------------------------|
|-1--------------------------|
|----------------------------|
|-1--------------------------|
|----------------------------|
|-4--------------------------|


   S  S E   S  E.   S  S  E    E    E       Q   S E    S  E E E S S
|----------------------------------------|--------------------------|
|--4--------4--4----4-----1----2----4----|--6-----6-------8---6-----|
|--3--1-----3--3----3--1-----------------|--6-----6-------8---6-----|
|-----------6--6-------------------------|--6---6---------8---6-6---|
|----------------------------------------|--------------------------|
|----------------------------------------|--------------------------|
|
|  S  S S S S  E  S S  S  S S  S  E    S    Q   S S  S S  Q   E S S
|-------8---6----------------------------|--------------------------|
|-----4-4------9-------------------------|--9--------9----8---6---6-|
|-----------6-12-------------------------|-10-------10----8---6---6-|
|--6----------10---------13---11-10------|-10--10---10----8---6---6-|
|---------------------11-15---13-11------|--------------------------|
|----------------------------------------|--9-------------8---6-----|
|
| +H.                          S  S S  S    Q   Q         Q   Q
|---------------------------------3-6--9-|-13------------11---9-----|
|-(1)--------------------------4--6-9-13-|-16-----------------------|
|----------------------------------------|--------------------------|
|-(1)------------------------------------|--------------------------|
|----------------------------------------|--------------------------|
|-(4)------------------------------------|--------------------------|


  E   S S  S  S S S  E  S S S S S  S    Q     S S E    E   S S E   S S
|-----------------------------4------|----------------------------------|
|-4-----------9------9----9----------|--6-------6------8-------6--------|
|-5----------------------------------|--6-------6------8-------6--------|
|-6---6----6--6---6--6--6-6-----6----|--6-----6--------8---8---6---6----|
|------------------------------------|----------------------------------|
|------------------------------------|----------------------------------|
|
| S S E   +E    S S +E  E   S S E       E S S E   S S  S S S S S S S S
|------------------------------------|----4---4-----3-------------------|
|-----4---(4)-----------4-----4------|--6-----6------------4-6----------|
|-----5---(5)-----6-(6)-5-----5------|--6-----6----------3---6-----6----|
|---6-----------6-8-(8)-6---6--------|--6--------------------6---6------|
|------------------------------------|--4---------4----3----------------|
|-4-----------------------------4----|-------------------------6--------|
|
| H                 +Q.         S  S    H              Q       Q
|-8-----------------(8)---------9-11-|-13-------------11-------9--------|
|------------------------------------|----------------------------------|
|------------------------------------|----------------------------------|
|------------------------------------|----------------------------------|
|------------------------------------|----------------------------------|
|------------------------------------|----------------------------------|


  E E S S S S +E     E S E   S
|-----4--------------4---4-----|
|-4---4-----4-(4)----4---4-----|
|-5---------6-(6)----5---5-----|
|-6-6---6---8-(8)----6---6---6-|
|------------------------------|
|------------------------------|
|
| Q   S S S S +S   S E S S S S
|------------------------------|
|-4-----4---4-(4)----4---4-----|
|-5---------6-(6)----5---5-----|
|-6---6-----8-(8)----6-6-------|
|------------------------------|
|-4-------4----------------4---|
|
| H           +Q..           S
|-8-----------(8)------------9-|
|------------------------------|
|------------------------------|
|------------------------------|
|------------------------------|
|------------------------------|


   E S S E E    E S S E   S S   E E E S S S S E S S E
|-----------------------------|-----4---4-------------|
|--6-----6------8-----6-------|-4---4---4---4-----4---|
|--6-----6------8-----6-------|-5---5-----------------|
|----6---6------8-8---6---6---|-6-6-----------6-------|
|-----------------------------|-----------------------|
|-----------------------------|-----------------------|
|
|  E S S E S S  E S S S S S S   Q   E E   S S E S S E
|------4---4-3------1-----1---|-----------------------|
|--6---6-----4----1-2-----2---|-4-----4---------4-----|
|--6---6-----5------3---3-----|-5-----5---------5-----|
|--6--------------------------|-6---6-6-----6---6-----|
|--4------------3-----1-------|-----------------------|
|-----------------------------|-4---------4---4-------|
|
|  Q     Q      Q     Q         W
|-13-----------11-----9-------|-8---------------------|
|-16--------------------------|-----------------------|
|-----------------------------|-----------------------|
|-----------------------------|-----------------------|
|-----------------------------|-----------------------|
|-----------------------------|-----------------------|


                                              7/4
  Q  +S  S E +S  S E Q    H    +H              W
|----------1-(1)--------|-4----(4)-----------|------------------------|
|-2--(2)---2-(2)--------|-6----(6)-----------|------------------------|
|-3--(3)---3-(3)--------|-5----(5)-----------|------------------------|
|-6--(6)----------------|--------------------|------------------------|
|-----------------------|--------------------|------------------------|
|-----------------------|--------------------|------------------------|
|
| Q  +S  S E  H           H     E  E S S S S   S E. Q  Q  Q  Q  Q  Q
|-----------------------|-1------------------|---4--------------------|
|-6--(6)----------------|-2--------------2---|-2-6--------------------|
|-3--(3)---3------------|-1----------1-------|------------------------|
|-----------------------|-3--------3---------|------------------------|
|-4--(4)---4------------|-4------------------|------------------------|
|-2--(2)---2------------|--------------------|------------------------|
|
| W                       W                    W             Q  Q  Q
|-6---------------------|--------------------|-4----------------------|
|-6---------------------|-6------------------|-6----------------------|
|-6---------------------|-5------------------|-6----------------------|
|-----------------------|-6------------------|------------------------|
|-----------------------|-4------------------|-4----------------------|
|-2---------------------|--------------------|------------------------|


 4/4
  S E.     +Q    +H       +H     H       W
|-----------------------|-------------|-------------*|
|-----------------------|-------------|-------------*|
|---5------(5)---(5)----|-(5)---------|-------------*|
|---5------(5)---(5)----|-(5)---------|-------------*|
|---6------(6)---(6)----|-(6)---------|-------------*|
|---3------(3)---(3)----|-(3)---------|-------------*|
|
| E    S S  E  E  H        W             W
|-----------------------|-------------|-------------*|
|-----------------------|-------------|-------------*|
|-----------------------|-------------|-------------*|
|-----------------------|-------------|-------------*|
|--------5--6-----------|-------------|-------------*|
|------3----------------|-------------|-------------*|
|
| W                       +W            +H.      Q
|-3---------------------|-(3)---------|-(3)---------*|
|-4---------------------|-(4)---------|-(4)---------*|
|-5---------------------|-(5)---------|-(5)---------*|
|-----------------------|-------------|-------------*|
|-6---------------------|-(6)---------|-(6)---------*|
|-----------------------|-------------|-------------*|


Duration Legend
---------------
W - whole; H - half; Q - quarter; E - 8th; S - 16th; T - 32nd; X - 64th; a - acciaccatura
+ - note tied to previous; . - note dotted; .. - note double dotted
Uncapitalized letters represent notes that are staccato (1/2 duration)
Irregular groupings are notated above the duration line
Duration letters will always appear directly above the note/fret number it represents the
duration for.  Duration letters with no fret number below them represent rests.  Multi-
bar rests are notated in the form Wxn, where n is the number of bars to rest for.  Low
melody durations appear below the staff

Tablature Legend
----------------
 h   - hammer-on
 p   - pull-off
 b   - bend
 pb  - pre-bend
 r   - bend release (if no number after the r, then release immediately)
 /\  - slide into or out of (from/to "nowhere")
 s   - legato slide
 S   - shift slide
  - natural harmonic
[n]  - artificial harmonic
n(n) - tapped harmonic
 ~   - vibrato
 tr  - trill
 T   - tap
 TP  - trem. picking
 PM  - palm muting
\n/  - tremolo bar dip; n = amount to dip
 \n  - tremolo bar down
 n/  - tremolo bar up
/n\  - tremolo bar inverted dip
 =   - hold bend; also acts as connecting device for hammers/pulls
 <>  - volume swell (louder/softer)
 x   - on rhythm slash represents muted slash
 o   - on rhythm slash represents single note slash

Misc Legend
-----------
 |  - bar
||  - double bar
||o - repeat start
o|| - repeat end
*|  - double bar (ending)
 :  - bar (freetime)
 $  - Segno
 &  - Coda
Tempo markers -  = BPM(8/16=s8/s16), where s8 = swing 8ths, s16 = swing 16ths





Comments


Popular Carpenters tabs & chords
Close To You 1 Bass Tabs
A Dream Is A Wish Your Heart Makes Chords
All You Get From Love Is A Love Song Chords
Close To You Chords
Love Me For What I Am Chords
Sweet Sweet Smile 1 Chords
Top Of The World 7 Chords
Weve Only Just Begun 2 Chords
Home For The Holidays Ukulele
Rainy Days And Mondays Ukulele


Song lyrics



↑ Back to top | Tablatures and chords are parodies/interpretations of the original songs. You may use it for private study, scholarship, research or language learning purposes only
© 2014 AZChords.com Contact us | Privacy policy | DMCA | Add/correct tabs | Request tabs | Top 50 tabs