>
 >
Superstar

Superstar Bass Tabs

Carpenters - Superstar chords, tabs, tablatures, lyrics

Guitar lessons | Add/correct | Request | Top 50 tabs Artists:  A B C D E F G H I J K L M N O P Q R S T U V W X Y Z 0-9

Superstar Bass Tabs – Carpenters

CD, Sheet music, Poster

Do you like Superstar? Share with your friends now
Bass TabsChordsChords v2Chords v3Chords v4TabsTabs v2Ukulele
-------------------------------------------------------------------------------
-------------------------------------------------------------------------------

Tuning: E A D G


Gtr I (E A D G) - 'Bass             '

  Q=90
 4/4
  Gtr I
  W          W          Q.   E Q.   E   Q.   E Q.   E
|----------|----------|---------------|----------------|
|----------|----------|-3----3-3----3-|-1----1-1----1--|
|----------|----------|---------------|----------------|
|----------|----------|---------------|----------------|


  Q  +S  S E Q.   S S   Q.   S S Q.   E   W          +W
|---------------------|-----------------|----------|--------|
|---------------------|---------------3-|----------|--------|
|-4--(4)---4-4----6-4-|-3----3---3------|-1--------|-(1)----|
|---------------------|-----------------|----------|--------|


  +S  S E E  E  +E   E  +S   E.    Q.    E  H
|-----------12-(12)-------------|----------------|
|-------------------13-(13)-----|----------------|
|-(1)-----------------------15--|----------------|
|-------------------------------|-13----13-13----|


   Q   +S  S  E  H       Q.    E  H
|---------------------|----------------|
|---------------------|----------------|
|---------------------|----------------|
|-13--(13)---13-13----|-13----13-13----|


   Q.    E  H      Q.   E H      Q.   E Q.   E   Q.   E Q.   E
|----------------|-------------|---------------|---------------|
|----------------|-------------|---------------|---------------|
|----------------|-------------|-------------8-|---------------|
|-11----11-11----|-9----9-9----|-8----8-8------|-6----6-6----8-|


  Q.   E +Q.   E   Q.   E +Q.    S  S   H    +H       Q.   E H
|----------------|--------------------|-------------|-------------|
|----------------|--------------10----|-------------|-------------|
|----------------|-----------------10-|-------------|-8----8-8----|
|-9----9-(9)---6-|-8----8-(8)---------|-8----(8)----|-------------|


  Q.   E H      Q.   E H      Q.   E Q.   E   Q.   E Q.   E
|-------------|-------------|---------------|---------------|
|-------------|-------------|-------------3-|---------------|
|-6----6-6----|-4----4-4----|-3----3-3------|-1----1-1----3-|
|-------------|-------------|---------------|---------------|


  Q.   E +Q.   E   Q.   E +Q.    S  S   H    +H       Q.   E Q  Q
|----------------|--------------------|-------------|---------------|
|----------------|--------------10----|-------------|---------------|
|-4----4-(4)-----|-----------------10-|-------------|---------------|
|--------------6-|-8----8-(8)---------|-8----(8)----|-9----9-8--6---|


  Q..   S S E S +S  S E   Q.   E Q  Q    Q..   S S E S +S  S E
|-----------------------|--------------|-----------------------|
|---------6-6-6-(6)-----|--------------|---------6---6-(6)-----|
|-------6-----------6---|-4----4-3--1--|-------6---6-------6---|
|-4-------------------4-|--------------|-4-------------------4-|


  Q  +S  S S S Q  Q    Q  E. S E E +S  S E   H    +Q   +S  S E   W
|--------------------|-----------1-(1)-----|-------------------|------|
|--------------------|---------1-------1---|-------------------|------|
|-4--(4)---4---3--1--|-------3-------------|-------------------|-4----|
|--------------------|-4--4--------------1-|-2----(2)--(2)---4-|------|


  Q.   E Q.   E   Q.   E Q.   E   Q  +S  S E Q.   S S   Q.   S S Q.   E
|---------------|---------------|---------------------|------------------|
|-3----3-3----3-|-1----1-1----1-|---------------------|---------------3--|
|---------------|---------------|-4--(4)---4-4----6-4-|-3----3---3-------|
|---------------|---------------|---------------------|------------------|


  W          +W           +S  S E E  E  +E   E  +S   E.    Q.    E  H
|----------|------------|-----------12-(12)-------------|----------------|
|----------|------------|-------------------13-(13)-----|----------------|
|-1--------|-(1)--------|-(1)-----------------------15--|----------------|
|----------|------------|-------------------------------|-13----13-13----|


   Q   +S  S  E  H       Q.    E  H       Q.    E  H      Q.   E H
|---------------------|----------------|----------------|-------------|
|---------------------|----------------|----------------|-------------|
|---------------------|----------------|----------------|-------------|
|-13--(13)---13-13----|-13----13-13----|-11----11-11----|-9----9-9----|


  Q.   E Q.   E   Q.   E Q.   E   Q.   E +Q.   E   Q.   E +Q.    S  S
|---------------|---------------|----------------|---------------------|
|---------------|---------------|----------------|--------------10-----|
|-------------8-|---------------|----------------|-----------------10--|
|-8----8-8------|-6----6-6----8-|-9----9-(9)---6-|-8----8-(8)----------|


  H    +H       Q.   E H      Q.   E H      Q.   E H
|-------------|-------------|-------------|-------------|
|-------------|-------------|-------------|-------------|
|-------------|-8----8-8----|-6----6-6----|-4----4-4----|
|-8----(8)----|-------------|-------------|-------------|


  Q.   E Q.   E   Q.   E Q.   E   Q.   E +Q.   E   Q.   E +Q.    S  S
|---------------|---------------|----------------|---------------------|
|-------------3-|---------------|----------------|--------------10-----|
|-3----3-3------|-1----1-1----3-|-4----4-(4)-----|-----------------10--|
|---------------|---------------|--------------6-|-8----8-(8)----------|


  H    +H       Q.   E Q  Q    Q..   S S E S +S  S E   Q.   E Q  Q
|-------------|--------------|-----------------------|--------------|
|-------------|--------------|---------6-6-6-(6)-----|--------------|
|-------------|--------------|-------6-----------6---|-4----4-3--1--|
|-8----(8)----|-9----9-8--6--|-4-------------------4-|--------------|


  Q..   S S E S +S  S E   Q  +S  S S S Q  Q
|-----------------------|--------------------|
|---------6---6-(6)-----|--------------------|
|-------6---6-------6---|-4--(4)---4---3--1--|
|-4-------------------4-|--------------------|


  Q.   E +H       H    +Q   +S  S E
|---------------|--------------------|
|---------------|--------------------|
|---------------|--------------------|
|-4----4-(4)----|-2----(2)--(2)---4--|


  H    +Q.   E   Q.   E +E  E E S S   Q.   E Q  Q    Q..   S S E S +S  S E
|--------------|--------------------|--------------|------------------------|
|--------------|-6------------------|--------------|---------6-6-6-(6)------|
|------------6-|--------------------|--------------|-------6-----------6----|
|-4----(4)-----|------4-(4)-4-6-8---|-9----9-8--6--|-4-------------------4--|


  Q.   E Q  Q    Q..   S S E S +S  S E   Q  +S  S S S Q  Q    Q.   E +H
|--------------|-----------------------|--------------------|---------------|
|--------------|---------6---6-(6)-----|--------------------|---------------|
|-4----4-3--1--|-------6---6-------6---|-4--(4)---4---3--1--|---------------|
|--------------|-4-------------------4-|--------------------|-4----4-(4)----|


                                7/4
  H    +Q   +S  S E   W          W
|-------------------|----------|------|
|-------------------|----------|------|
|-------------------|-4--------|------|
|-2----(2)--(2)---4-|----------|------|


 4/4
  W          +W           +H     +Q   +S  S E
|----------|------------|---------------------*|
|----------|------------|---------------------*|
|-3--------|-(3)--------|-(3)----(3)--(3)-----*|
|----------|------------|---------------------*|


Duration Legend
---------------
W - whole; H - half; Q - quarter; E - 8th; S - 16th; T - 32nd; X - 64th; a - acciaccatura
+ - note tied to previous; . - note dotted; .. - note double dotted
Uncapitalized letters represent notes that are staccato (1/2 duration)
Irregular groupings are notated above the duration line
Duration letters will always appear directly above the note/fret number it represents the
duration for.  Duration letters with no fret number below them represent rests.  Multi-
bar rests are notated in the form Wxn, where n is the number of bars to rest for.  Low
melody durations appear below the staff

Tablature Legend
----------------
 h   - hammer-on
 p   - pull-off
 b   - bend
 pb  - pre-bend
 r   - bend release (if no number after the r, then release immediately)
 /\  - slide into or out of (from/to "nowhere")
 s   - legato slide
 S   - shift slide
  - natural harmonic
[n]  - artificial harmonic
n(n) - tapped harmonic
 ~   - vibrato
 tr  - trill
 T   - tap
 TP  - trem. picking
 PM  - palm muting
\n/  - tremolo bar dip; n = amount to dip
 \n  - tremolo bar down
 n/  - tremolo bar up
/n\  - tremolo bar inverted dip
 =   - hold bend; also acts as connecting device for hammers/pulls
 <>  - volume swell (louder/softer)
 x   - on rhythm slash represents muted slash
 o   - on rhythm slash represents single note slash

Misc Legend
-----------
 |  - bar
||  - double bar
||o - repeat start
o|| - repeat end
*|  - double bar (ending)
 :  - bar (freetime)
 $  - Segno
 &  - Coda
Tempo markers -  = BPM(8/16=s8/s16), where s8 = swing 8ths, s16 = swing 16ths





Comments


Popular Carpenters tabs & chords
Close To You 1 Chords
Hurting Each Other Chords
Rainy Days And Mondays Chords
Sing Chords
Sing Sing A Song Chords
Top Of The World 5 Chords
Close To You Intro Tabs
A Dream Is A Wish Your Heart Makes Ukulele
Love Me For What I Am Ukulele
Sing Sing A Song Ukulele


Song lyrics



↑ Back to top | Tablatures and chords are parodies/interpretations of the original songs. You may use it for private study, scholarship, research or language learning purposes only
© 2014 AZChords.com Contact us | Privacy policy | DMCA | Add/correct tabs | Request tabs | Top 50 tabs