» » »

Carpenters, Jambalaya Bass tabs (ver.1)

Artists:  A B C D E F G H I J K L M N O P Q R S T U V W X Y Z # 

Jambalaya Bass tabs (ver.1)

Carpenters Tabs
 Rating:
4/5 (4 votes)
Jambalaya lessons Tabs too difficult? Try these video lessons and learn fast
                carpenters_jambalaya

TablEdited by Jan Bjorklund   
You are welcome to request for tabs!
Fingering and positions as suggested by TablEdit, please use common sense.


TablEdited by Jan Bjorklund
Tuning : E A D G 	Time Signature: 4/4

The bass joins at beat 15

 |               |               |               |                
|----------------------------------------------------------------|
|----------------------------------------0-------2-------4-------|
|----------------------------------------------------------------|
|----------------------------------------------------------------|

 |               |               |               |                
|0-----------0-------------------0-------0-----------------------|
|----------------0-------------------------------4-------2-------|
|----------------------------------------------------------------|
|----------------------------------------------------------------|

 |               |               |               |                
|----------------------------------------------------------------|
|0-----------0-------------------0-----------0-------------------|
|----------------0-------------------------------0-----------0---|
|----------------------------------------------------------------|

 |               |               |               |                
|----------------------------------------------------------------|
|0-----------0-------------------0-------0-------2-------4-------|
|----------------0-----------------------------------------------|
|----------------------------------------------------------------|

 |               |               |               |                
|0-----------0-------------------0-----------0-------------------|
|----------------0-------------------------------0---------------|
|----------------------------------------------------------------|
|----------------------------------------------------------------|

 |               |               |               |                
|------------0-------------------0-------0-----------------------|
|----------------0-------------------------------4-------2-------|
|----------------------------------------------------------------|
|----------------------------------------------------------------|

 |               |               |               |                
|----------------------------------------------------------------|
|0-----------0-------------------0-----------0-------------------|
|----------------0-------------------------------0---------------|
|----------------------------------------------------------------|

 |               |               |               |                
|----------------------------------------------------------------|
|0-----------0-------------------0-------0-------2-------4-------|
|----------------0-----------------------------------------------|
|----------------------------------------------------------------|

 |               |               |               |                
|0-----------0-------------------0-------------------------------|
|----------------0-----------------------------------------------|
|----------------------------------------------------------------|
|----------------------------------------------------------------|

 |               |               |               |                
|0-----------0-------------------0-----------0-------------------|
|----------------0-------------------------------4-------2-------|
|----------------------------------------------------------------|
|----------------------------------------------------------------|

 |               |               |               |                
|----------------------------------------------------------------|
|0-----------0-------------------0-----------0-------------------|
|----------------0-------------------------------0-----------0---|
|----------------------------------------------------------------|

 |               |               |               |                
|----------------------------------------------------------------|
|0-----------0-------------------0-------0-------2-------4-------|
|----------------0-----------0-----------------------------------|
|----------------------------------------------------------------|

 |               |               |               |                
|0-----------0-------------------0-----------0-------------------|
|----------------0-------------------------------0---------------|
|----------------------------------------------------------------|
|----------------------------------------------------------------|

 |               |               |               |                
|------------0-------------------0-------0-----------------------|
|----------------0-------------------------------4-------2-------|
|----------------------------------------------------------------|
|----------------------------------------------------------------|

 |               |               |               |                
|----------------------------------------------------------------|
|0-----------0-------------------0-----------0-------------------|
|----------------0-------------------------------0---------------|
|----------------------------------------------------------------|

 |               |               |               |                
|----------------------------------------------------------------|
|0-----------0-------------------0-------0-------2-------4-------|
|----------------0-----------------------------------------------|
|----------------------------------------------------------------|

 |               |               |               |                
|0-------------------------------0-------------------------------|
|----------------0-----------------------------------------------|
|----------------------------------------------------------------|
|----------------------------------------------------------------|

 |               |               |               |                
|0-----------0-------------------0-------0-----------------------|
|----------------0-------------------------------4-------2-------|
|----------------------------------------------------------------|
|----------------------------------------------------------------|

 |               |               |               |                
|----------------------------------------------------------------|
|0-----------0-------------------0-------------------------------|
|----------------0---------------------------------------0-------|
|------------------------------------2-----------3---------------|

 |               |               |               |                
|----------------------------------------------------------------|
|0-----------0-------------------0-------0-------2-------4-------|
|----------------0-----------------------------------------------|
|----------------------------------------------------------------|

 |               |               |               |                
|------------0-------------------0-----------0-------------------|
|----------------0-------------------------------0---------------|
|----------------------------------------------------------------|
|----------------------------------------------------------------|

 |               |               |               |                
|------------0-------------------0-------0-----------------------|
|----------------0-------------------------------4-------2-------|
|----------------------------------------------------------------|
|----------------------------------------------------------------|

 |               |               |               |                
|----------------------------------------------------------------|
|0-----------0-------------------0-------------------------------|
|----------------0---------------------------------------0-------|
|------------------------------------2-----------3---------------|

 |               |               |               |                
|----------------------------------------------------------------|
|0-----------0-------------------0-------0-------2-------4-------|
|----------------0-----------------------------------------------|
|----------------------------------------------------------------|

 |               |               |               |                
|0-------------------------------0-------------------------------|
|----------------0-----------------------------------------------|
|----------------------------------------------------------------|
|----------------------------------------------------------------|

 |               |               |               |                
|0-----------0-------------------0-------0-----------------------|
|----------------0-------------------------------4-------2-------|
|----------------------------------------------------------------|
|----------------------------------------------------------------|

 |               |               |               |                
|----------------------------------------------------------------|
|0-----------0-------------------0-----------0-------------------|
|----------------0-------------------------------0-----------0---|
|----------------------------------------------------------------|

 |               |               |               |                
|----------------------------------------------------------------|
|0-----------0-------------------0-------0-------2-------4-------|
|----------------0-----------------------------------------------|
|----------------------------------------------------------------|

 |               |               |               |                
|------------0-------------------0-----------0-------------------|
|----------------0-------------------------------0---------------|
|----------------------------------------------------------------|
|----------------------------------------------------------------|

 |               |               |               |                
|------------0-------------------0-------0-----------------------|
|----------------0-------------------------------4-------2-------|
|----------------------------------------------------------------|
|----------------------------------------------------------------|

 |               |               |               |                
|----------------------------------------------------------------|
|0-----------0-------------------0-----------0-------------------|
|----------------0-------------------------------0---------------|
|----------------------------------------------------------------|

 |               |               |               |                
|----------------------------------------------------------------|
|0-----------0-------------------0-------0-------2-------4-------|
|----------------0-----------------------------------------------|
|----------------------------------------------------------------|

 |               |               |               |                
|0-------------------------------0-------------------------------|
|----------------0-----------------------------------------------|
|----------------------------------------------------------------|
|----------------------------------------------------------------|

 |               |               |               |                
|------------0-------------------0-------0-----------------------|
|----------------0-------------------------------4-------2-------|
|----------------------------------------------------------------|
|----------------------------------------------------------------|

 |               |               |               |                
|----------------------------------------------------------------|
|0-----------0-------------------0-----------0-------------------|
|----------------0-------------------------------0---------------|
|----------------------------------------------------------------|

 |               |               |               |                
|----------------------------------------------------------------|
|0-----------0-------------------0-------0-------2-------4-------|
|----------------0-----------------------------------------------|
|----------------------------------------------------------------|

 |               |               |               |                
|0-----------0-------------------0-----------0-------------------|
|----------------0-------------------------------0---------------|
|----------------------------------------------------------------|
|----------------------------------------------------------------|

 |               |               |               |                
|0-------------------------------0-------0-----------------------|
|----------------0-------------------------------4-------2-------|
|----------------------------------------------------------------|
|----------------------------------------------------------------|

 |               |               |               |                
|----------------------------------------------------------------|
|0-----------0-------------------0-----------0-------------------|
|----------------0-------------------------------0---------------|
|----------------------------------------------------------------|

 |               |               |               |                
|----------------------------------------------------------------|
|0-----------0-------------------0-------0-------2-------4-------|
|----------------0-----------------------------------------------|
|----------------------------------------------------------------|

 |               |               |               |                
|0-------------------------------0-------------------------------|
|----------------0-----------------------------------------------|
|----------------------------------------------------------------|
|----------------------------------------------------------------|

 |               |               |               |                
|------------0-------------------0-------0-----------------------|
|----------------0-------------------------------4-------2-------|
|----------------------------------------------------------------|
|----------------------------------------------------------------|

 |               |               |               |                
|----------------------------------------------------------------|
|0-----------0-------------------0-------------------------------|
|----------------0---------------------------------------0-------|
|------------------------------------2-----------3---------------|

 |               |               |               |                
|----------------------------------------------------------------|
|0-----------0-------------------0-------0-------2-------4-------|
|----------------0-----------------------------------------------|
|----------------------------------------------------------------|

 |               |               |               |                
|------------0-------------------0-----------0-------------------|
|----------------0-------------------------------0---------------|
|----------------------------------------------------------------|
|----------------------------------------------------------------|

 |               |               |               |                
|0-----------0-------------------0-------0-----------------------|
|----------------0-------------------------------4-------2-------|
|----------------------------------------------------------------|
|----------------------------------------------------------------|

 |               |               |               |                
|----------------------------------------------------------------|
|0-------------------------------0-------------------------------|
|----------------0---------------------------------------0-------|
|------------------------------------2-----------3---------------|

 |               |               |               |                
|----------------------------------------------------------------|
|0-----------0-------------------0-------0-------2-------4-------|
|----------------0-----------------------------------------------|
|----------------------------------------------------------------|

 |               |               |               |                
|0-----------0-------------------0-------------------------------|
|----------------0-----------------------------------------------|
|----------------------------------------------------------------|
|----------------------------------------------------------------|

 |               |               |               |                
|------------0-------------------0-------0-----------------------|
|----------------0-------------------------------4-------2-------|
|----------------------------------------------------------------|
|----------------------------------------------------------------|

 |               |               |               |                
|----------------------------------------------------------------|
|0-----------0-------------------0-----------0-------------------|
|----------------0-------------------------------0---------------|
|----------------------------------------------------------------|

 |               |               |               |                
|----------------------------------------------------------------|
|0-----------0-------------------0-------0-------2-------4-------|
|----------------0-----------------------------------------------|
|----------------------------------------------------------------|

 |               |               |               |                
|0-----------0-------------------0-----------0-------------------|
|----------------0-------------------------------0---------------|
|----------------------------------------------------------------|
|----------------------------------------------------------------|

 |               |               |               |                
|0-------------------------------0-------0-----------------------|
|----------------0-------------------------------4-------2-------|
|----------------------------------------------------------------|
|----------------------------------------------------------------|

 |               |               |               |                
|----------------------------------------------------------------|
|0-----------0-------------------0-----------0-------------------|
|----------------0-------------------------------0---------------|
|----------------------------------------------------------------|

 |               |               |               |                
|----------------------------------------------------------------|
|0-----------0-------------------0-------0-------2-------4-------|
|----------------0-----------------------------------------------|
|----------------------------------------------------------------|

 |               |               |               |                
|0-------------------------------0-------------------------------|
|----------------0-----------------------------------------------|
|----------------------------------------------------------------|
|----------------------------------------------------------------|

 |               |               |               |                
|----------------------------------------------------------------|
|----------------------------------------------------------------|
|----------------------------------------------------------------|
|----------------------------------------------------------------|

 |               |               |               |                
|----------------------------------------------------------------|
|----------------------------------------------------------------|
|----------------------------------------------------------------|
|----------------------------------------------------------------|

 |               |               |               |                
|----------------------------------------------------------------|
|----------------------------------------------------------------|
|----------------------------------------------------------------|
|----------------------------------------------------------------|

 |               |               |               |                
|----------------------------------------------------------------|
|----------------------------------------------------------------|
|----------------------------------------------------------------|
|----------------------------------------------------------------|

 |               |               |               |                
|----------------------------------------------------------------|
|----------------------------------------------------------------|
|----------------------------------------------------------------|
|----------------------------------------------------------------|

 |               |               |               |                
|----------------------------------------------------------------|
|----------------------------------------------------------------|
|----------------------------------------------------------------|
|----------------------------------------------------------------|

 |               |               |               |                
|----------------------------------------------------------------|
|----------------------------------------------------------------|
|----------------------------------------------------------------|
|----------------------------------------------------------------|

 |               |               |               |                
|------------------------------------10--7-------4-------7-------|
|----------------------------------------------------------------|
|----------------------------------------------------------------|
|----------------------------------------------------------------|

 |               |               |               |                
|------------0-------------------0-------0-----------------------|
|----------------0-------------------------------4-------2-------|
|----------------------------------------------------------------|
|----------------------------------------------------------------|

 |               |               |               |                
|----------------------------------------------------------------|
|0-----------0-------------------0-----------0-------------------|
|----------------0-------------------------------0---------------|
|----------------------------------------------------------------|

 |               |               |               |                
|----------------------------------------------------------------|
|0-----------0-------------------0-------0-------2-------4-------|
|----------------0-----------------------------------------------|
|----------------------------------------------------------------|

 |               |               |               |                
|0-----------0-------------------0-----------0-------------------|
|----------------0-------------------------------0---------------|
|----------------------------------------------------------------|
|----------------------------------------------------------------|

 |               |               |               |                
|0-------------------------------0-------0-----------------------|
|----------------0-------------------------------4-------2-------|
|----------------------------------------------------------------|
|----------------------------------------------------------------|

 |               |               |               |                
|----------------------------------------------------------------|
|0-----------0-------------------0-----------0-------------------|
|----------------0-------------------------------0---------------|
|----------------------------------------------------------------|

 |               |               |               |                
|----------------------------------------------------------------|
|0-----------0-------------------0-------------------------------|
|----------------0-------------------------------0---------------|
|----------------------------------------------------------------|

 |               |               |               |                
|12------10------7-----------5-------------------0---------------|
|----------------------------------------0-----------------------|
|----------------------------------------------------------------|
|----------------------------------------------------------------|

 |               |               |               |                
|----------------------------------------------------------------|
|----------------------------------------------------------------|
|----------------------------------------------------------------|
|----------------------------------------------------------------|

 |               |               |               |                
|------------------------------------------------0---------------|
|----------------------------------------0-----------------------|
|----------------------------------------------------------------|
|----------------------------------------------------------------|

 |               |               |               |                
|----------------------------------------------------------------|
|----------------------------------------------------------------|
|----------------------------------------------------------------|
|----------------------------------------------------------------|

 |               |               |               |                
|----------------------------------------------------------------|
|----------------------------------------------------------------|
|----------------------------------------------------------------|
|----------------------------------------------------------------|
            
Submit corrections

comments powered by Disqus
↑ Back to top | Carpenters Bass for Jambalaya. Lyrics for acoustic guitar and electric guitar. Tablatures and chords are parodies/interpretations of the original songs. You may use it for private study, scholarship, research or language learning purposes only