» » »

Carpathian Forest, The Pale Mist Hovers Towards The Nightly Shores Tabs (ver.1)

Artists:  A B C D E F G H I J K L M N O P Q R S T U V W X Y Z # 

The Pale Mist Hovers Towards The Nightly Shores Tabs (ver.1)

Carpathian Forest Tabs
Rating:
0/5 (0 votes)
The Pale Mist Hovers Towards The Nightly Shores lessons Tabs too difficult? Try these video lessons and learn fast
                -------------------------------------------------------------------------------
-------------------------------------------------------------------------------

Tuning:		Standard Tuning [E A D G B e]

e|-----------------------------------------------------|
B|-----------------------------------------------------|
G|-----------------------------------------------------|_
D|-------------------7-9--10---------------------------| |
A|-7-------------7-8-5-7--8------------------5--5--5---| |
E|-5-0-0-0-0-0-0-5-6---------0-0-0-0-0-0-0-0-3--3--3---| |
                                                         > Riff 1
e|-----------------------------------------------------| |
B|-----------------------------------------------------| |
G|-----------------------------------------------------|_|
D|-------------------7-9--10---------------------------|
A|-7-------------7-8-5-7--8------------------5--8--8---|
E|-5-0-0-0-0-0-0-5-6---------0-0-0-0-0-0-0-0-3--6--6---|

e|-----------------------------------------------------|
B|-----------------------------------------------------|
G|-----------------------------------------------------|_
D|-2-----------------3-3-2-----------3-2-0---2-0-------| |
A|-0-0-0-0-0-0-0-0-0-1-1-0-0-0-0-0-0-------3-----3-----| |
E|-----------------------------------------------------| |
                                                         > Riff 2
e|-----------------------------------------------------| |
B|-----------------------------------------------------| |
G|-----------------------------------------------------|_|
D|-2-----------------3-3-2-----------3--6--------------|
A|-0-0-0-0-0-0-0-0-0-1-1-0-0-0-0-0-0-1--4--------------|
E|-----------------------------------------------------|

e|-----------------------------------------------------------------|
B|-----------------------------------------------------------------|
G|-----------------------------------------------------------------| Riff 3
D|-2-2-2-2-2-2-2-2-2-2-2-2-2-2-2-2-2-2-2-2-2-2-2-2-2-2-2-2-2-2-2-2-|
A|-0-0-0-0-0-0-0-0-0-0-0-0-0-0-0-0-0-0-0-0-0-0-0-0-0-0-0-0-0-0-0-0-|
E|-----------------------------------------------------------------|

                           Riff 4
e|---------------------------------------------------------------------------|
B|-12-12-13-13-10-10-12-12-8-8-10-10-7-7-8-8-5-5-7-7-3-3-5-5-----------------|
G|-----------------------------------------------------------5-5-7-7-4-4-4-4-|
D|---------------------------------------------------------------------------|
A|---------------------------------------------------------------------------|
E|---------------------------------------------------------------------------|

                           Riff 5
e|---------------------------------------------------------------------------|
B|---------------------------------------------------------------------------|
G|---------------------------------------------------------------------------|
D|-4-4-4-4-4-4-4-4-4-4-4-4-4-4-4-4-4-4-4-4-4-4-4-4-4-4-4-4-4-4-4-4-4-4-4-4-4-|
A|-2-2-2-2-2-2-2-2-2-2-2-2-2-2-2-2-2-2-2-2-2-2-2-2-2-2-2-2-2-2-2-2-2-2-2-2-2-|
E|---------------------------------------------------------------------------|

e|-----------------------------------------------------|
B|-----------------------------------------------------|
G|-----------------------------------------------------| Riff 6
D|---------------2-3-----------------------------------|
A|-2-2-2-2-2-3-5-----2-2-2-2-3--3--3-------------------|
E|-0-0-0-0-----------0-0-0-0-1--1--1-------------------|

e|-----------------------------------------------------|
B|-----------------------------------------------------|
G|-----------------------------------------------------| Riff 7
D|-----------------------------------------------------|
A|-2-2-2-2-2-2-2-2-2-2-2-2-3-3-3-3-5-5-5-5-------------|
E|-0-0-0-0-0-0-0-0-0-0-0-0-1-1-1-1-3-3-3-3-------------|


					  Use whammy from this part onwards
e|-12h15-12h15-12h15-12h15-12h15-12h15-12h15-12h15-12h15-12h15-12h15-15------|
B|----------------------------------------------------------------------15---|
G|-------------------------------------------------------------------------14|
D|---------------------------------------------------------------------------|
A|---------------------------------------------------------------------------|
E|---------------------------------------------------------------------------|

   ~
e|-------------------------------------------------------------|
B|-12----------------------------------------------------------|
G|-------------------------------------------------------------| Riff 8
D|---------3-3-3-3---------3-2-------------3-3-3-3---------4-5-|
A|-2-2-2-2-1-1-1-1-2-2-2-2-----0-1-2-2-2-2-1-1-1-1-2-2-2-2-2-3-|
E|-0-0-0-0---------0-0-0-0---------0-0-0-0---------0-0-0-0-----|




		Riff 1			x 7 times
		Riff 2		  	x 4 times
		Riff 3			x 3 times
		Riff 4 + Riff 5		x 4 times
		Riff 6			x 2 times
		Riff 7			x 4 times
		Solo (with Riff 7 on top)
		Riff 8			x 3 times




| /  slide up
| \  slide down
| h  hammer-on
| p  pull-off
| ~  vibrato
| +  harmonic
| x  Mute note
===============================================================================
            
Submit corrections

comments powered by Disqus
↑ Back to top | Carpathian Forest Tabs for The Pale Mist Hovers Towards The Nightly Shores. Lyrics for acoustic guitar and electric guitar. Tablatures and chords are parodies/interpretations of the original songs. You may use it for private study, scholarship, research or language learning purposes only