» » »

The Eclipse / The Raven.. Tabs (ver.1)

Artists:  A B C D E F G H I J K L M N O P Q R S T U V W X Y Z # 

The Eclipse / The Raven.. Tabs (ver.1)

Carpathian Forest
Rating:
0/5 (0 votes)

Hard to play? Try these video lessons and learn fast.
                ----------------------------------------------------------------------------
		 The Eclipse / The Raven - Carpathian Forest
----------------------------------------------------------------------------

Tuning:		Standard Tuning [E A D G B e]

e|-------------------------------------------------------------------------|
B|-----5-----5-----5--------------5-----5-----5----------------------------|
G|-----------------------------7-------------------------------------------|
D|--7-----7-----6-----6--------------6-----7-----7-------------------------|
A|-------------------------------------------------------------------------|
E|-------------------------------------------------------------------------|

e|-------------------------------------------------------------------------|
B|-----5-----5-----6-------------------------------------------------------|
G|--------------------------------4-----4----------------------------------|
D|--7--------------------------6-----6-----6-------------------------------|
A|--------7-----5----------------------------------------------------------|
E|-------------------------------------------------------------------------|

		Keep on playing till the end of the song

e|-------------------------------------------------------------------------|
B|-------------------------------------------------------------------------|
G|-------7--7--8--8--7--7---------------------Electric Guitar Part---------|
D|---12--------------------------------------------------------------------|
A|-------------------------------------------------------------------------|
E|-------------------------------------------------------------------------|


| /  slide up
| \  slide down
| h  hammer-on
| p  pull-off
| ~  vibrato
| +  harmonic
| x  Mute note
============================================================================
            
Hard to play? Try these video lessons and learn fast. | Correct




comments powered by Disqus
↑ Back to top | Tablatures and chords are parodies/interpretations of the original songs. You may use it for private study, scholarship, research or language learning purposes only