» » »

Carpathian Forest, The Angel And The Sodomizer Tabs (ver.1)

Artists:  A B C D E F G H I J K L M N O P Q R S T U V W X Y Z # 

The Angel And The Sodomizer Tabs (ver.1)

Carpathian Forest Tabs
Rating:
0/5 (0 votes)
The Angel And The Sodomizer lessons Tabs too difficult? Try these video lessons and learn fast
                -----------Carpathian Forest---------------------
------The Angel and the Sodomizer--------------

standard tuning


1. part (beginning)

|--------------------------------------------------------------------|
|--------------------------------------------------------------------|
|--------------------------------------------------------------------|
|---------3-33-33----------------------------------------------------|
|-2-2-2-2-1-11-11----------------------------------------------------|
|-0-0-0-0------------------------------------------------------------|



2. part

|--------------------------------------------------------------------|
|--------------------------------------------------------------------|
|--------------------------------------------------------------------|
|--------------------------------------------------------------------|
|-5-7---(7)---5-7----(7)---------------------------------------------|
|-3-5---(5)---3-5----(5)---------------------------------------------|


Then the 2. guitar plays riff 1 and the 1. guitar this nice solo:

|--------------------------------------------------------------------|
|--------------------------------------------------------------------|
|--------------------------------------------------------------------|
|--------------------------------------------------------------------|
|----------------7---7-9--9b10-9b10gb9-9-----------------------------|
|-9~-9~-9~-9~-9~---9-------------------------------------------------|


3.part
|--------------------------------------------------------------------|
|--------------------------------------------------------------------|
|--------------------------------------------------------------------|
|--------------------------------------------------------------------|
|-3------3------3----3------3------3---------------------------------|
|-1-1111-1-1111-1-11-1-1111-1-1111-1---------------------------------|

4. riff

|--------------------------------------------------------------------|
|--------------------------------------------------------------------|
|--------------------------------------------------------------------|
|------3--------3-4-------3--------3-2-------------------------------|
|------1--------1-2-------1--------1-0-------------------------------|
|-0000---000000------0000---000000-----------------------------------|

5. riff

|--------------------------------------------------------------------|
|--------------------------------------------------------------------|
|--------------------------------------------------------------------|
|---------------99-88------------------------------------------------|
|444444444444---77-66------------------------------------------------|
|222222222222--------------------------------------------------------|


|--------------------------------------------------------------------|
|--------------------------------------------------------------------|
|--------------------------------------------------------------------|
|--------------------------------------------------------------------|
|-444444444444---22-33-----------------------------------------------|
|-222222222222---00-11-----------------------------------------------|  


Bridge

|--------------------------------------------------------------------|
|--------------------------------------------------------------------|
|--------------------------------------------------------------------|
|--------------------------------------------------------------------|
|-2-------2------2---2---2--2-2-2------------------------------------|
|-0-------0------0---0---0--0-0-0------------------------------------|


Then 2. guitar play riff 1 and the 1. guitar plays a awesome 
solo

solo2
|---9------------------------------------------------------------..-----|
|-----8-----------------------------------------------------------------|
|-------9-7-9-7-9-9b10---9b10gb9-7-------------------------7---7-9-9-9hb|
|-----------------------------------9-9---7-99--7-99--7-99---9----------|
|-----------------------------------------------------------------------|
|-----------------------------------------------------------------------|

Now you`re sodomized ;)               
            
Submit corrections

comments powered by Disqus
↑ Back to top | Carpathian Forest Tabs for The Angel And The Sodomizer. Lyrics for acoustic guitar and electric guitar. Tablatures and chords are parodies/interpretations of the original songs. You may use it for private study, scholarship, research or language learning purposes only