» » »

Carpathian Forest Tabs (ver.1)

Artists:  A B C D E F G H I J K L M N O P Q R S T U V W X Y Z # 

Carpathian Forest Tabs (ver.1)

Carpathian Forest
Rating:
1/5 (2 votes)

Tabs too difficult? Try these video lessons and learn fast.
                Band: Carpathian Forest
B=bend PM=palm mute /=slide

Riff1
|-------------------------------------------------------|
|-------------------------------------------------------|
|-------------------------------------------------------|
|-------------------------------------------------------|
|-5--5--5-5-5-5-5--5-5--5-5--5--5--5-5-5-5-8--8-8--8-8--|
|-3--3--3-3-3-3-3--3-3--3-3--3--3--3-3-3-3-6--6-6--6-6--|

Riff2
|-----------------------------------------------------------|
|-----------------------------------------------------------|
|-----------------------------------------------------------|
|-----------------------------------------------------------|
|-3-3-3-3-3-3-3-3-3-3-3-3-3-3-3-3-3-3-3-3-3-3-3-3-2---2---2-|
|-1-1-1-1-1-1-1-1-1-1-1-1-1-1-1-1-1-1-1-1-1-1-1-1-0---0---0-|

Riff3
|-----------------------------|
|-----------------------------|
|-----------------------------|
|---------------------4---3---|
|-2---5---4---2---2---2---1---|
|-0---3---2---0---0-----------|

Riff4
|-----------------|
|-----------------|
|-----------------|
|-----------------|
|-2---2-2-2-2/8\2-|
|-0---0-0-0-0/6\0-|
      |PM |

Solo
|--------------------------------------------------------|
|----10B----8---------------------10-12-10---------------|
|-9-------------9---9----------9-----------9--9----------|
|----------------------9--9------------------------9--8--|
|--------------------------------------------------------|
|--------------------------------------------------------|
Remember that this solo is a bit different from earlier Carpathian forest solos.

And the song goes like this:
Riff1 8x
Riff2 4x
Riff3 6x
Bass plays Riff3 once here
Riff3 4x  Solo
Riff4 12x
Riff1 6x
Riff2 4x
            
Tabs too difficult? Try these video lessons and learn fast.




comments powered by Disqus
↑ Back to top | Tablatures and chords are parodies/interpretations of the original songs. You may use it for private study, scholarship, research or language learning purposes only