>
 >
Who The Fuxk Taught You Snaps

Who The Fuxk Taught You Snaps Bass Tabs

Carpathian - Who The Fuxk Taught You Snaps chords, tabs, tablatures, lyrics

Guitar lessons | Add/correct | Request | Top 50 tabs Artists:  A B C D E F G H I J K L M N O P Q R S T U V W X Y Z 0-9

Who The Fuxk Taught You Snaps Bass Tabs – Carpathian

CD, Sheet music, Poster

Do you like Who The Fuxk Taught You Snaps? Share with your friends now
Bass Tabs
Band:		CARPATHIAN
Album/EP:		NOTHING TO LOSE 
Label:		RESIST RECORDS
Bassist:		CHRIS FARMER
Tuning:		Drop/Low B (EF#EB)

INTRO Part 1 x 2 (0.00)

G|---------------------------------------------------------|
D|---------------------------------------------------------|
A|-------------------------------------------66---33-------|
E|--1p0-00-0-00-0--1p0-00-0-001p0-00-0-00-0----0----------|

INTRO Part 2 x 2 

G|---------------------------------------------------------|
D|---------------------------------------------------------|
A|------------------------------------------66---33--------|
E|-0-0--0-00-00--0-0--0-00-00-0-0--0-00-00-----0-----------|

VERSE PART 1 x1

G|------------------------------------------|
D|------------------------------------------|
A|------------------------------------------|
E|-0-8-8-8-8--0-8-8-8-8---0-8-8-8-7-7-3-3---|

G|------------------------------------------|
D|------------------------------------------|
A|------------------------------------------|
E|-0-8-8-8-8--0-8-8-8-8---0-8-8-8-10-10-7-7-|

VERSE PART 2 x1

G|------------------------------------------|
D|------------------------------------------|
A|------------------------------------------|
E|-0-5-5-5-5--0-5-5-5-5---0-8-8-8-7-7-3-3---|

G|------------------------------------------|
D|------------------------------------------|
A|------------------------------------------|
E|-0-8-8-8-8--0-8-8-8-8---0-8-8-8-10-10-7-7-|

BRIDGE x4 

G|---------------------------------------|
D|---------------------------------------|
A|----------------------------------1-3--|
E|-0-00-1-0-00-0-131-0--00-1-0-00-1------|

CHORUS x2

G|-----------------------------------------------------------------------|
D|-----------------------------------------------------------------------|
A|-----------------5--7--8--10--8--7-8-----------------------------------|
E|-8-8--8--7-7-7-0--0--0---0--0--0--0--8-8--8--7-7--7-0-0-0-00-00-0-00-0-|


VERSE PART 1 x1

G|------------------------------------------|
D|------------------------------------------|
A|------------------------------------------|
E|-0-8-8-8-8--0-8-8-8-8---0-8-8-8-7-7-3-3---|

G|------------------------------------------|
D|------------------------------------------|
A|------------------------------------------|
E|-0-8-8-8-8--0-8-8-8-8---0-8-8-8-10-10-7-7-|

VERSE PART 2 x1

G|------------------------------------------|
D|------------------------------------------|
A|------------------------------------------|
E|-0-5-5-5-5--0-5-5-5-5---0-8-8-8-7-7-3-3---|

G|------------------------------------------|
D|------------------------------------------|
A|------------------------------------------|
E|-0-8-8-8-8--0-8-8-8-8---0-8-8-8-10-10-7-7-|

OUTRO Part 1 x1

G|---------------------------------------------------------|
D|---------------------------------------------------------|
A|---------------------------------------------------------|
E|-8-8--8--7-7--7--0-0-0-0-0-0--8-8--8--7-7--7-0-0-0-0-0-0-|

OUTRO Part 2 x 4

G|---------------------------------------|
D|---------------------------------------|
A|----------------------------------1-3--|
E|-0-00-1-0-00-0-131-0--00-1-0-00-1------|





Comments


Popular Carpathian tabs & chords
Kiss The Rings Bass Tabs
Love Song Bass Tabs
Deadbeats Tabs
End Of The World Tabs
Holding Hands Is For Girls Tabs
If Looks Could Kill Tabs
Kiss The Rings Tabs
Love Song Tabs
Who The Fuck Taught You Snaps? Tabs
Who The Fuck Taught You Snaps? 1 Tabs


Song lyrics



↑ Back to top | Tablatures and chords are parodies/interpretations of the original songs. You may use it for private study, scholarship, research or language learning purposes only
© 2014 AZChords.com Contact us | Privacy policy | DMCA | Add/correct tabs | Request tabs | Top 50 tabs