» » »

Carpathian, If Looks Could Kill Tabs (ver.1)

Artists:  A B C D E F G H I J K L M N O P Q R S T U V W X Y Z # 

If Looks Could Kill Tabs (ver.1)

Carpathian Tabs
 Rating:
4.2/5 (5 votes)
If Looks Could Kill lessons Tabs too difficult? Try these video lessons and learn fast
                Intro / Verse         
                       |-------MUTE------|
D -------------------------------------------------------|
A -------------------------------------------------------|
F --------h10-h9-h10----12-10-9----9-10-9----------------|
C –000~-------------------------10-----------------------|
G –000~--------------------------------------------------|
C –000~--------------------------------------------------|
                                          
                       |-------MUTE------|
D -------------------------------------------------------|
A -------------------------------------------------------|
F --------h10-h9-h10----12-10-9----9-10-9----------------|
C –888~-------------------------10-----------------------|
G –888~--------------------------------------------------|
C –888~--------------------------------------------------|


D -------------------------------------------------------|
A -------------------------------------------------------|
F ---------------12-14-15-14-12--10--12------------------|
C –101010~-----------------------------------------------|
G –101010~-----------------------------------------------|
C –101010~-----------------------------------------------|

                         |--------MUTE-------|
D -------------------------------------------------------|
A -------------------------------------------------------|
F ---------h10-h9-h10-----17-15-14-15-14-12-14-----------|
C –888~--------------------------------------------------|
G –888~--------------------------------------------------|
C –888~--------------------------------------------------|    X5



2nd Part Verse

D -------------------------------------------------------|
A -------------------------------------------------------|
F -------------------------------------------------------|
C ------3333333333333333--------5555555555555555---------|
G ------3333333333333333--------5555555555555555---------|
C –-----3333333333333333--------5555555555555555---------|


  |------------------------MUTE------------------------|
D -------------------------------------------------------|
A -------------------------------------------------------|
F -------------------------------------------------------|
C -0-00--0-00--0000-00--0-00--0000-00-0-00—-0000-00-0-00-|
G -0-00--0-00--0000-00--0-00--0000-00-0-00--0000-00-0-00-|
C -0-00--0-00--0000-00--0-00--0000-00-0-00--0000-00-0-00-|

D -------------------------------------------------------|
A -------------------------------------------------------|
F -------------------------------------------------------|
C ------3333333333333333--------5555555555555555---------|
G ------3333333333333333--------5555555555555555---------|
C –-----3333333333333333--------5555555555555555---------|

  
  |------------------------MUTE------------------------|
D -------------------------------------------------------|
A -------------------------------------------------------|
F -------------------------------------------------------|
C -0-00--0-00--0000-00--0-00--0000-00-0-00—-5-3-2-3-2-0--|
G -0-00--0-00--0000-00--0-00--0000-00-0-00-—5-3-2-3-2-0--|
C -0-00--0-00--0000-00--0-00--0000-00-0-00—-5-3-2-3-2-0--|

             |----MUTE----|           |-M-|
D ---------||--------------------------------------------|
A ---------||----------------12-12-12-------12-12-12-----|
F ---------||----------------15-15-15-------15-15-15-----|
C --12///--||-00--0000-000-------------000---------------|
G --12///--||-00--0000-000-------------000---------------|
C –-12///--||-00--0000-000-------------000---------------|    X4


3rd Part Verse 

             |---------------FAST PICKING------------------|
D ---------|------------------------------------------------|
A ---------|------------------------------------------------|
F ---------|------------------------------------------------|
C ---------|------------------------------------------------|
G –8-7-7h8-|-888-777-888-101010--131313-121212-101010-121212|
C –--------|------------------------------------------------|

    |---------FAST PICKING------|
D -------------------------------------------------------|
A -------------------------------------------------------|
F -------------------------------------------------------|
C -------------------------------------------------------|
G ---151515-131313-121212-131313—--13-12-10-8-10-12-10---|
C –------------------------------------------------------|
   

   |------------------FAST PICKING------------------|
D |--------------------------------------------------|
A |--------------------------------------------------|
F |--------------------------------------------------|
C |--------------------------------------------------|
G |-888-777-888-101010--131313-121212-101010-121212--|
C |--------------------------------------------------|


    |---------FAST PICKING------|
D -------------------------------------------------------|
A -------------------------------------------------------|
F -------------------------------------------------------|
C -------------------------------------------------------|
G ---151515-131313-121212-131313—--15-13-12-10-12-13-12--|
C –------------------------------------------------------| 

REPEAT 3RD VERSE TWISE








MELODIC CHORUS


D ---------------------------------------------------------|
A ---------------------------------------------------------|
F ------------------------------9-10-----------------------|
C ---10-0-8-0-7-0-8-0-10-0-8-0-----------------------------|
G ---------------------------------------------------------|
C –--------------------------------------------------------|    X8


  |------------------------MUTE------------------------|
D --------------------------------------------------------------|
A -----------------------------------------------------------18-|
F --------------------------------------------------------------|
C -0-00--0-00--0000-00--0-00--0000-00-0-00—-0000-00-0-00--------|
G -0-00--0-00--0000-00--0-00--0000-00-0-00--0000-00-0-00--------|
C -0-00--0-00--0000-00--0-00--0000-00-0-00--0000-00-0-00--------|


ENDING


D -----------------------------------------------|
A -----------------------------------------------|
F -12-10-9----9-10-9------12-10-9----9-10-9------|
C ---------10--------10-----------10--------10---|
G -----------------------------------------------|
C –----------------------------------------------|    X16


D -----------|
A -----------|
F -----------|
C ---000~----|
G ---000~----|
C –--000~----|
            
Submit corrections

comments powered by Disqus
↑ Back to top | Carpathian Tabs for If Looks Could Kill. Lyrics for acoustic guitar and electric guitar. Tablatures and chords are parodies/interpretations of the original songs. You may use it for private study, scholarship, research or language learning purposes only