» » »

Carpathian, Holding Hands Is For Girls Tabs (ver.1)

Artists:  A B C D E F G H I J K L M N O P Q R S T U V W X Y Z # 

Holding Hands Is For Girls Tabs (ver.1)

Carpathian Tabs
Rating:
0/5 (0 votes)
Holding Hands Is For Girls lessons Tabs too difficult? Try these video lessons and learn fast
                INTRO
D:---------------------------------------------------------------------|
A: --------------------------------------------------------------------|
F: --------------------------------------------------------------------|
C: ----7-5-7-8-7-5-7~----8-7-8~----5-3-5~----7-5-7-10-8-7h8p7----------|
G:--00----------------88--------33--------00-----------------8~--------|
C:--00--0-0-0-0-0-0---88--8-8---33--3-3---00--0-0-0--0-0---------------|
Pm  ..  . . . . . .   ..  . .   ..  . .   ..  . . .  . .

D:-------------------------I-last time only-|
A: ------------------------I----------------|
F: ------------------------I----------------|
C: ----10-8-10~----8-7-8~--I----------------|
G:--88----------77---------I--7-7---7-7-----|
C:--88---8-8----77--7-7----I--7-7---7-7-----|
Pm  ..   . .    ..  . .       . .   . .

CHORUS
D:-----------------------------------------------------------------------|strum-these-octaves
A:--------------------------------------------------for-a-few-counts-----|
F:--------------7-10/9---------------------------------------------1210--|
C:3---0----5----x-x--x---3---0----5----3-------3---0----5----------x-x---|
G:1-0-0----3----5-8/-7-0-1-0-0-00-3-00---3h5-0-1-0-0-00-3-00-5-8p7-10/8--|
C:--0-0-00---00--0-----0---0-0-00---00--0----0---0-0-00---00--0----------|
Pm  .   ..   ..  .     .   .   ..   ..  .    .   .   ..   ..  .


BRIDGE
D:--------------------------------------------------------------I-last--|
A: -------------------------------------------------------------I-time--|
F:--------------------------------------------------------------I-------|
C:0--7-3-5-2-3-320--0--7-3-5-2-3-875--0--7-3-5-2-3-320-0--7-3-5-I-------|
G:0-----------------0-----------------0----------------0--------I-11-11-|
C:0-0-0-0-0-0-------0-0-0-0-0-0-------0-0-0-0-0-0------0-0-0-0--I-11-11-|
Pm  . . . . .         . . . . .         . . . . .        . . .    .. ..


BREAKDOWN!  : )
D:------------------------------------------|
A:------------------------------------------|
F:------------------------------------------|
C:--0-------------0---------------------1---|
G:--0-0-00--0-00--0--0-00-0-7h8---5h7---1---|
C:--0-0-00--0-00--0--0-00-0-7h8-0-5h7-0-1---|
Pm    . ..  . ..     . .. .     .     .


D:--------------------------------------------------------|
A: -------------------------------------------------------|
F: -------------------------------------------------------|
C: -----------------------3/5---------------------------1-|
G:------------------------1/3---------------7h8---3h5---1-|
C:--00-000-1-00-0-000-1-0-----00-000-1-00-0-7h8-0-3h5-0-1-|
Pm                      .                 .     .     .

breakdown
D:------------------|
A: -----------------|
F: -----------------|
C: --------1--------|
G:--00-000-1-0-0----|
C:--00-000-1-0-0----|
Pm  .. ...   . .

outro(GTR 1)
D:-------------------------------------------------|
A:-------------------------------------------------|
F:-------------------------------------------------|
C:-0h5h7-0h7h8 0h5h7-0h3h5-0h5h7-0h7h8-0h5h7-0h3h5-|
G:-------------------------------------------------|
C:-------------------------------------------------|

outro
D:--------------------------------------------------|
A:--------------------------------------------------|
F:--------------------------------------------------|
C:--------------------------------------------------|
G:-00-000-0-0-0-000000-000000-----------------------|
C:-00-000-0-0-0-000000-000000-----------------------|
            

comments powered by Disqus
↑ Back to top | Carpathian Tabs for Holding Hands Is For Girls. Lyrics for acoustic guitar and electric guitar. Tablatures and chords are parodies/interpretations of the original songs. You may use it for private study, scholarship, research or language learning purposes only