» » »

End Of The World Tabs (ver.1)

Artists:  A B C D E F G H I J K L M N O P Q R S T U V W X Y Z # 

End Of The World Tabs (ver.1)

Carpathian
Rating:
5/5 (3 votes)

Hard to play? Try these video lessons and learn fast.
                End of the World-Splamron

Tuning: Drop B

I tabbed it out for a friends band who are doing a cover, but I thought I may as well 
it seeing as theres no tabs. Easy, fun song to play.

Start: 0:00-0:21 (This is the point..)
e|---------------------------------------------------------------------------|(x4)
B|---------------------------------------------------------------------------|
G|---------------------------------------------------------------------------|
D|--8-0000--7-0000-0-0-----8-0000-7-0000-------------------------------------|
A|--8-0000--7-0000-0-0-00--8-0000-7-0000-1-3-4-3-1-3-------------------------|
E|--8-0000--7-0000-0-0-00--8-0000-7-0000-1-3-4-3-1-3-------------------------|
                     x

On the ending of the fourth time you play it, play:
e|---------------------------------------------------------------------------|
B|---------------------------------------------------------------------------|
G|---------------------------------------------------------------------------|
D|---------------------------------------------------------------------------|
A|---8-0000-10-0000-12\-0-0-0------------------------------------------------|
E|---8-0000-10-0000-12\-0-0-0------------------------------------------------|

  0:22-0:33
e|---------------------------------------------------------------------------|
B|---------------------------------------------------------------------------|
G|---------------------------------------------------------------------------|
D|--7-----------9/101010-------------------9/10-10-10------------------------|
A|--5-------00--7/-8-8-8--7/88-0--0-0-0-00-7/-8--8--8--7/88------------------|
E|----0-0-0-00------------7/88-0--0-0-0-00-------------7/88------------------|
      x     xx                 x        xx


e|---------------------------------------------------------------------------|
B|---------------------------------------------------------------------------|
G|---------------------------------------------------------------------------|
D|---------------9/101010-------------------9/10-10-10--9-10-10-10-----------|
A|--0--------00--7/-8-8-8--7/88-0--0-0-0-00-7/-8--8--8--7/-8--8--8-----------|
E|--0--0-0-0-00------------7/88-0--0-0-0-00----------------------------------|
       x     xx                    x     xx
  0:34-0:47
e|---------------------------------------------------------------------------|
B|---------------------------------------------------------------------------|
G|---------------------------------------------------------------------------|
D|--8-------------9-10-10-10--9/10-10--10-------------------9-10-10-10-------|
A|--8-------------7/-8--8--8--7/-8--8--10-------------------7/-8--8--8--7/88-|
E|--8-8-8-8-8-8-8----------------------10-10-10-10-10-10-10-------------7/88-|
      x x x x x x                          x  x  x  x  x  x
e|---------------------------------------------------------------------------|
B|---------------------------------------------------------------------------|
G|---------------------------------------------------------------------------|
D|-0------------9/10-10-10------0------------9/10-10-10------0---------------|
A|-0------------7/-8--8--8-7/88-0------------7/-8--8--8-7/88-0---------------|
E|-0-00000-0000------------7/88-0-00000-0000------------7/88-0-00000-0000----|

e|---------------------------------------------------------------------------|
B|---------------------------------------------------------------------------|
G|---------------------------------------------------------------------------|
D|-9/10-10-10----------------------------------------------------------------|
A|-7/-8--8--8-7/88-0---------------------------------------------------------|
E|------------7/88-0---------------------------------------------------------|

0:48-1:13 (With open arms embrace the cold...)
e|---------------------------------------------------------------------------|(x4)
B|---------------------------------------------------------------------------|
G|---------------------------------------------------------------------------|
D|-----3-----------3-----------3--------------------------0------------------|
A|-000-1-0-000-000-1-0-000-000-1-0-000-1-1-1-1-1-1--------0------------------|
E|-000---0-000-000---0-000-000---0-000-1-1-1-1-1-1--------0---pick-slide-----|
                                       x x x x x x
1:18-1:39 (Submerged breathless...)
e|---------------------------------------------------------------------------|(x4)
B|---------------------------------------------------------------------------|
G|---------------------------------------------------------------------------|
D|-7----------------10\9--------------------10\9-7---------------------------|
A|-5-00-00 00-00-00--8\7-8-8-8-888-10-10-10--8\7-5---------------------------|
E|---00-00-00-00-00------8-8-8-888-10-10-10----------------------------------|
     x  x  x  x  x
Guitar 2
e|---------------------------------------------------------------------------|
B|---------------------------------------------------------------------------|
G|-------------------------10\9-10-10-10-101010--12-12-12--9-9-9-------------|
D|-7----------------10\9----x\x--x--x--x--xxx-x---x--x--x--x-x-x-------------|
A|-5-00-00 00-00-00--8\7----8\7--8--8--8--8-8-8--10-10-10--7-7-7-------------|
E|---00-00-00-00-00----------------------------------------------------------|

  1:40-1:50 (Deal with it..)
e|---------------------------------------------------------------------------|
B|---------------------------------------------------------------------------|
G|---------------------------------------------------------------------------|
D|--7--------------7--------3-2----------------------------------------------|
A|--5-0-0-0-0-0-00-5-0-0-0--3-2----------------------------------------------|
E|----0-0-0-0-0-00---0-0-0--3-2----------------------------------------------|
      x   x   x      x   x
                          (Rock and Roll..)
e|---------------------------------------------------------------------------|
B|---------------------------------------------------------------------------|
G|---------------------------------------------------------------------------|
D|--7--------------7--------2---1--------------------------------------------|
A|--5-0-0-0-0-0-00-5-0-0-0--2---1--------------------------------------------|
E|----0-0-0-0-0-00---0-0-0--2---1--------------------------------------------|
      x   x   x        x    (hold)
  1:51-2:22
e|---------------------------------------------------------------------------|
B|---------------------------------------------------------------------------|
G|---------------------------------------------------------------------------|
D|-----3-----------3-----------3-------------------------------------0-------|
A|-0-0-1-0-000-0-0-1-0-000-0-0-1-0-000-1-1-1-1-1-1-------------------0-------|
E|-0-0---0-000-0-0---0-000-0-0---0-000-1-1-1-1-1-1-------------------0-------|
                                       x x x x x x
 2:23-end...
Guitar 1 (And I will never forget about you..)
e|---------------------------------------------------------------------------|
B|---------------------------------------------------------------------------|
G|--9--5--7------------------------------------------------------------------|
D|--x--x--x------------------------------------------------------------------|
A|--7--3--5-------3-2-0-0000--0000--0000-------------------------------------|
E|----------------3-2-0-0000--0000--0000-------------------------------------|
Guitar 2
e|---------------------------------------------------------------------------|
B|---------------------------------------------------------------------------|
G|---------------------------------------------------------------------------|
D|---------------------------------------------------------------------------|
A|--5--2--3-------3-2-0-0000--0000--0000-------------------------------------|
E|--5--2--3-------3-2-0 0000--0000--0000-------------------------------------|

Enjoy!
************************************

| /   slide up
| \   slide down
| h   hammer-on
| p   pull-off
| ~   vibrato
| +   harmonic
| x   Mute note
            
Hard to play? Try these video lessons and learn fast. | Correct




comments powered by Disqus
↑ Back to top | Tablatures and chords are parodies/interpretations of the original songs. You may use it for private study, scholarship, research or language learning purposes only