» » »

Carpathian, Don't Have My Back Bass tabs (ver.1)

Artists:  A B C D E F G H I J K L M N O P Q R S T U V W X Y Z # 

Don't Have My Back Bass tabs (ver.1)

Carpathian Tabs
Rating:
0/5 (0 votes)
Don't Have My Back lessons Tabs too difficult? Try these video lessons and learn fast
                Band:		CARPATHIAN
Album/EP:		CARPATHIAN EP 
Label:		RESIST RECORDS
Bassist:		CHRIS FARMER
Tuning:		Drop/Low B (EF#EB)

INTRO/VERSE x 2 (0.00) Optional

G|-------------------------------------------------------|
D|-3---3---2--------3---3---0---3---3---2---5-3-2h3p2----|
A|-------------3--------------------------------------3--|
E|---0---0---0----0---0---0-------0---0---0--------------|

G|--------------------------77-55-33-22--77-55-33-22-----|
D|-3---3---2--------3---3--------------------------------|
A|-------------3-----------------------------------------|
E|---0---0---0----0---0---0------------------------------|

BREAKDOWN 1 x1

G|-------------------------------------------------------------|
D|-------------------------------------------------------------|
A|-6~--------------------------6~------------------------------|
E|---00-0--00-0--00-0--00-0-0-0--00-0--00-0-00-0-1-3-4-3-1-----|

G|-------------------------------------------------------------|
D|-------------------------------------------------------------|
A|-6~--------------------------6~------------------------------|
E|---00-0--00-0--00-0--00-0-0-0--00-0--00-0-00-0-1-3-4-3-1—-0~-|

G|-----------------------------------------------------------------|
D|-----------------------------------------------------------------|
A|-----------------------------------------------------------------|
E|-000000-0-00000-0-1-3-4-3-1-0--000000-0--0-000000-0-1-3-4-3-1-0--|

VERSE 2 x2

G|-----------------------------------------------|---------|
D|-----------------------------------------------|---------|
A|-------------------------------------1/3---3/1-|---------|
E|-0-00-0-0-0--1--0-00--3-3-3-3-3-3-00-----00----|-8~--7~--|

VERSE 1 x2

G|-------------------------------------------------------|
D|-3---3---2--------3---3---0---3---3---2---5-3-2h3p2----|
A|-------------3--------------------------------------3--|
E|---0---0---0----0---0---0-------0---0---0--------------|

G|--------------------------77-55-33-22--77-55-33-22-----|
D|-3---3---2--------3---3--------------------------------|
A|-------------3-----------------------------------------|
E|---0---0---0----0---0---0------------------------------|

INTERLUDE x6

G|----------------------------------------------|
D|----------------------------------------------|
A|--5-5-5-5—5/7--3-3-3-3—3/5--1-1-1-1--3-3-3-3--|
E|----------------------------------------------|

BREAKDOWN 2 x 4

G|----------------------------------------------------|
D|----------------------------------------------------|
A|----------------------------------------------------|
E|-00-00-00-00-00--000-000--00-00-00-00--000-000-00---|

OUTRO x 1

G|--------------------------|
D|--------------------------|
A|--------------------------|
E|--0-0~--0-0~--0-0~--0-0~--|
            

comments powered by Disqus
↑ Back to top | Carpathian Bass for Don't Have My Back. Lyrics for acoustic guitar and electric guitar. Tablatures and chords are parodies/interpretations of the original songs. You may use it for private study, scholarship, research or language learning purposes only