» » »

Carpathian, Don't Have My Back Tabs (ver.1)

Artists:  A B C D E F G H I J K L M N O P Q R S T U V W X Y Z # 

Don't Have My Back Tabs (ver.1)

Carpathian Tabs
 Rating:
3.4/5 (5 votes)
Don't Have My Back lessons Tabs too difficult? Try these video lessons and learn fast
                Don’t have my back

Verse 1 (both guitars x2)
D-----------------------------|-------------------------|
A-----------------------------|-------------------------|
F-----------------------------|-------------------------|
C-3---3---2---------3---2---0-|-3---3---2---5-3—2h3p2---|
G-------------3---------------|-----------------------3-|
C---0---0---0-----0---0---0---|---0---0---0-------------|
    .   .   .     .   .   .       .   .   .        

D-----------------------------|---------------------------------|
A-----------------------------|---------------------------------|
F-----------------------------|-7-7-5-5-3-3-2-2---7-7-5-5-3-3-5-|
C-3---3---2---------3---2---0-|---------------------------------|
G-------------3---------------|---------------------------------|
C---0---0---0-----0---0---0---|---------------------------------|
    .   .   .     .   .   .       

Breakdown 1 (both guitars)
D--------------------------------------------------------------------|
A--------------------------------------------------------------------|
F-7~---------------------------------7~------------------------------|
C-5~--00-0---00-0---00-0---00-0-0-0--5~--00-0--00-0--00-0--1-3-4-3-1-|
G-6~--00-0---00-0---00-0---00-0-0-0--6~--00-0--00-0--00-0--1-3-4-3-1-|
C-----00-0---00-0---00-0---00-0-0-0------00-0--00-0--00-0--1-3-4-3-1-|
      .. .   .. .   .. .   .. . . .      .. .  .. .  .. .  . . . . .            

D------------------------------------------------------------------------|
A------------------------------------------------------------------------|
F-7~---------------------------------7~----------------------------------|
C-5~--00-0---00-0---00-0---00-0-0-0--5~--00-0--00-0--00-0--1-3-4-3-1--0~-|
G-6~--00-0---00-0---00-0---00-0-0-0--6~--00-0--00-0--00-0--1-3-4-3-1--0~-|
C-----00-0---00-0---00-0---00-0-0-0------00-0--00-0--00-0--1-3-4-3-1--0~-|
      .. .   .. .   .. .   .. . . .      .. .  .. .  .. .  . . . . .  .    

Breakdown 1 cont.
D------------------------------------------------------------------|
A------------------------------------------------------------------|
F------------------------------------------------------------------|
C-000000-0--0-000000-0-1-3-4-3-1-0--000000-0--0-000000-0-1-3-4-3-1-|
G-000000-0--0-000000-0-1-3-4-3-1-0--000000-0--0-000000-0-1-3-4-3-1-|
C-000000-0--0-000000-0-1-3-4-3-1-0--000000-0--0-000000-0-1-3-4-3-1-|
  ...... .  . ...... . . . . . . .  ...... .  . ...... .                                             

Verse 2 (both guitars x3)
D----------------------------------------------------|----------|
A----------------------------------------------------|----------|
F----------------------------------------------------|----------|
C-0-00-0-0-0--1--0-00--3-3-3-3-3-3--00--3/5--00-5/3--|-10~--10~-|
G-0-00-0-0-0--1--0-00--3-3-3-3-3-3--00--1/3--00-3/1--|--8~---8~-|
C-0-00-0-0-0--1--0-00--3-3-3-3-3-3--00-------00------|--8~---7~-|
    .. . . .       ..    . . . . .  ..       ..                        

Repeat verse 1

Interlude (guitar 1)
D------------------------------------------------|
A------------------------------------------------|
F-7-7-7-7--7/9---5-5-5-5--5/7---3-3-3-3--5-5-5-5-|
C-x-x-x-x--x-x---x-x-x-x--x-x---x-x-x-x--x-x-x-x-|
G-5-5-5-5--5/7---3-3-3-3--3/5---1-1-1-1--3-3-3-3-|
C------------------------------------------------|

Interlude 2 (guitar 2 comes in after guitar 1’s part is played 2x)
D------------------------------------------------------------|
A------------------------------------------------------------|
F----------------5-3-2-3-2-----------------------------------|
C----2-3-2-5-3-2-----------3-----2-3-2-5-3-2-----2-3-2-5-3-2-|
G-5---------------------------1---------------3--------------|
C------------------------------------------------------------|





Breakdown 2
D----------------------------------------------------------------------------|
A----------------------------------------------------------------------------|
F----------------------------------------------------------------------------|
C-0-0--0-0--000-000--0-0--0-0--000-000--0-0--0-0--000-000--0-0--0-0--000-000-|
G-0-0--0-0--000-000--0-0--0-0--000-000--0-0--0-0--000-000--0-0--0-0--000-000-|
C-0-0--0-0--000-000--0-0--0-0--000-000--0-0--0-0--000-000--0-0--0-0--000-000-|
  . .  . .  ... ...  . .  . .  ... ...  . .  . .  ... ...  . .  . .  ... ...   

Breakdown cont
D----------------------------------------------------------------------------------------|
A----------------------------------------------------------------------------------------|
F----------------------------------------------------------------------------------------|
C-00-00-00-00--000-000--00-00-00-00--000-000--00-00-00-00--000-000--00-00-00-00--000-000-|
G-00-00-00-00--000-000--00-00-00-00--000-000--00-00-00-00--000-000--00-00-00-00--000-000-|
C-00-00-00-00--000-000--00-00-00-00--000-000--00-00-00-00--000-000--00-00-00-00--000-000-|
  .. .. .. .. ... ...  .. .. .. .. ... ...  .. .. .. .. ... ...  .. .. .. .. ... ...  
                                                        
Outro
D-----------------------|
A-----------------------|
F-----------------------|
C-0-0~--0-0~--0-0~--0-0-|
G-0-0~--0-0~--0-0~--0-0-|
C-0-0~--0-0~--0-0~--0-0-|
  . .   . .   . .   . .
            
Submit corrections

comments powered by Disqus
↑ Back to top | Carpathian Tabs for Don't Have My Back. Lyrics for acoustic guitar and electric guitar. Tablatures and chords are parodies/interpretations of the original songs. You may use it for private study, scholarship, research or language learning purposes only