» » »

Transparent & Glasslike Tabs

Artists:  A B C D E F G H I J K L M N O P Q R S T U V W X Y Z # 

Transparent & Glasslike Tabs

(ver. 1)
Carpark North Tabs
 Rating:
4/5 (4 votes)
    Transparent & Glasslike lessons Tabs too difficult? Try these video lessons and learn fast
                TRANSPARENT AND GLASSLIKE
~~~~~~~~~~~~~~~~~~~~~~~~~
ARTIST ~ CARPARK NORTH



This tab is 100% correct! Especially the solo part!

G/B   - x22003


Intro
-----

E|---------------------------------------------------------------
H|-1-0-1-0-1-0-1-3-1-0-1-0-1-0-1-3-5-3-5-3-5-3-5-6-5-3-6-1-3-1-3-
G|---------------------------------------------------------------
D|---------------------------------------------------------------
A|---------------------------------------------------------------
E|---------------------------------------------------------------

E|---------------------------------------------------------------|
H|-6-5-6-5-6-5-6-8-6-5-6-5-6-5-6-8-1-0-1-0-1-0-1-3-1-0-1-0-1-0-1-|
G|---------------------------------------------------------------|
D|---------------------------------------------------------------|
A|---------------------------------------------------------------|
E|---------------------------------------------------------------|


1. Vers
-------

Am                C              G/B
Stop the clocks   Stop the cars

Am         Em          Bb             Am 
Tell yuor  dad at the  plant to come  home

Am             C                G/B
Do not smile   Do not sing

Am          Em        Bb     Am
Close your  eyes and  go to  bed


Chorus
------

F                  C
I forgive and I pretend

       Em
Not to smile

        Dm          G
Cause I am stronger than you

                         Am (Interlude)
You are transparenbt and glasslike


Interlude
---------

E|---------------------------------------------------------------
H|-1-0-1-0-1-0-1-3-1-0-1-0-1-0-1-3-5-3-5-3-5-3-5-6-5-3-6-1-3-1-3-
G|---------------------------------------------------------------
D|---------------------------------------------------------------
A|---------------------------------------------------------------
E|---------------------------------------------------------------

E|-------------------------------------------------------------|
H|-6-5-6-5-6-5-6-8-6-5-6-5-6-5-8-1-0-1-0-1-0-1-3-1-0-1-0-1-0-1-|
G|-------------------------------------------------------------|
D|-------------------------------------------------------------|
A|-------------------------------------------------------------|
E|-------------------------------------------------------------|


2. Vers
-------

A mol            C                G/B
Stop your mind   Stop your heart

Am         Em    Bb           Am    
Tell your  girl  not to come  home

Am               C                G/B
Lock your door   lock it tight

Am    Em    Bb      Am
Go to bed   cut the line


Chorus
------

F                  C
I forgive and I pretend

       E mol
Not to smile

        D mol       G
Cause I am stronger than you

                         A mol
You're transparent and glasslike



Outro
-----

E|-------------------------------------------------------
H|-1-0-1-0-1-0-1-3-1-0-1-0-1-0-1-3-5-3-5-3-5-3-5-6-5-3-5-
G|-------------------------------------------------------
D|-------------------------------------------------------
A|-------------------------------------------------------
E|-------------------------------------------------------

E|---------------------------------------
H|-1-3-1-3-6-5-6-5-6-5-6-8-6-5-6-5-6-5-6-
G|---------------------------------------
D|---------------------------------------
A|---------------------------------------
E|---------------------------------------

E|--------------------------------------------
H|-8-10-8-10-8-10-8-10-13-10-8-10-13-12-10-12-
G|--------------------------------------------
D|--------------------------------------------
A|--------------------------------------------
E|--------------------------------------------

E|-8-7-8-7-8-7-8-10-8-7-8-7-8-7-8-10-12-10-12-10-12-10-12-13-12-
H|--------------------------------------------------------------
G|--------------------------------------------------------------
D|--------------------------------------------------------------
A|--------------------------------------------------------------
E|--------------------------------------------------------------

E|-10-12-8-10-8-10-13-12-13-12-13-12-13-15-13-12-13-12-13-12-13-15-
H|-----------------------------------------------------------------
G|-----------------------------------------------------------------
D|-----------------------------------------------------------------
A|-----------------------------------------------------------------
E|-----------------------------------------------------------------

E|-12-10-12-8-10-8-10-7-8-7-8-5-7-5-7-3-5-|
F|----------------------------------------|
G|----------------------------------------|
D|----------------------------------------|
A|----------------------------------------|
E|----------------------------------------|

We would like to thank Yatmund Christiansen and Michael Lykke Hvam for the first 
part of the intro and chords/lyrics. Thank you kindly...! 




Enjoy!
            
Submit corrections

↑ Back to top | Carpark North Tabs for Transparent & Glasslike. Lyrics for acoustic guitar and electric guitar. Tablatures and chords are parodies/interpretations of the original songs. You may use it for private study, scholarship, research or language learning purposes only