>
 >
Kiss Me

Kiss Me Guitar Tabs

Carpark North - Kiss Me chords, tabs, tablatures, lyrics

Guitar lessons | Add/correct | Request | Top 50 tabs Artists:  A B C D E F G H I J K L M N O P Q R S T U V W X Y Z 0-9

Kiss Me Guitar Tabs – Carpark North

CD, Sheet music, Poster

Do you like Kiss Me? Share with your friends now
Tabs
INTRO:
     Dsus4  D      Dsus2   Dsus2
e|---3------2------0-------0-----|
H|---3------3------3-------3-----|
G|---2------2------2-------2-----|
D|-------------------------------|
A|-------------------------------|
E|-------------------------------|


VERS:

e|---5---4---0---2---7---4---0---|
H|---5---5---5---5---5---5---5---|
G|---4---4---4---4---4---4---4---|
D|-------------------------------|
A|-------------------------------|
E|-------------------------------|


PRE-CHORUS:
      F#m6    C#m      A
e|----3-------4--------5---------|
H|----3-------5--------5---------|
G|----3-------6--------6---------|
D|----1-------6--------7---------|
A|----0-------4--------7---------|
E|----2----------------5---------|


OMKVÆD:
     Em  Emadd13  Fm  C   Em  G   Dm  C/E E
e|---0---0--------1---0---0---3---1---0---0----|
H|---0---1--------1---1---0---3---3---1---0----|
G|---0---0--------1---0---0---0---2---0---1----|
D|---2---2--------3---2---2---0---0---2---2----|
A|---2---2--------3---3---2---2-------3---2----|
E|---0---0--------1-------0---3-------0---0----|


Vers:
Esus   E     E       H/A 
Silent star, screams afar
E/G#              A
I gaze at you, my light.
Esus      E       E          H/A
Exploding chill, this aching will
         G#m       A
when the moon is right

you shine.


Pre-Chorus:
F#m6         C#m
Hold it up, don't let it down
A
Don't stop me now.


Omkvæd:
Em   Emadd13    Fm
Kiss me, please just kiss me
       C                 Em  G
'cause your eyes looking adorable
Dm            C/E    E    
With you, I'm home again


Vers:
Esus     E     E               H/A
emerging fear, that you're not here
E/G#                      A
I can see you're changing ways.
Esus        E       E           H
The wind is strong, the moon is gone
         G#m       A
And your shadow disappears.


Pre-Chorus:
F#m6         C#m
Hold it up, don't let it down
A
Don't stop me now.


Omkvæd:
Em   Emadd13    Fm
Kiss me, please just kiss me
       C                 Em  G
'cause your eyes looking adorable
Dm            C/E    G    
With you, I'm home again
G     D    F  D
Don't stop me now.


Omkvæd:
F#m             Gm
Kiss me, please just kiss me
       D                 F#m A
'cause your eyes looking adorable
Em            Dsus4 D     Dsus2   D
With you, I'm home again
Em            Dsus4 D
With you, I'm home again
G     D    F  D
Don't stop me now.





Comments


Popular Carpark North tabs & chords
Last Song Bass Tabs
32 Chords
Fireworks Chords
There's A Place Chords
Transparent & Glasslike Chords
Wild Wonders Chords
Save Me From Myself Tabs
Transparrent And Glasslike Tabs
Best Day Ukulele
I And You Ukulele


Song lyrics



↑ Back to top | Tablatures and chords are parodies/interpretations of the original songs. You may use it for private study, scholarship, research or language learning purposes only
© 2014 AZChords.com Contact us | Privacy policy | DMCA | Add/correct tabs | Request tabs | Top 50 tabs