» » »

Carolines Spine, Think About Me Bass tabs (ver.1)

Artists:  A B C D E F G H I J K L M N O P Q R S T U V W X Y Z # 

Think About Me Bass tabs (ver.1)

Carolines Spine Tabs
 Rating:
4/5 (4 votes)
Think About Me lessons Tabs too difficult? Try these video lessons and learn fast
                You'll need to listen to the song to interpret the notes and their 
timing.  There are 3 parts to the song, he just improvises on each 
and i have tabbed most of it if not all.

Part 1

G|-------------------|---------------------|------------------|
D|-------------------|---------------------|------------------|
A|-------------------|---------------------|------------------|
E|-0--0-2--3--3-5--7-|-0--0-2--3--0-3-5--7-|-0--0-2-3--3-5--8-|
	        X2
Part 2

G|---------------------------|-----------------------------|
D|---5-5---------7---7/9-7\5-|---5-5---------7---9---------| 
A|-3-----5---5-5---5---------|-3-----5---5-5---5---7-5-7---|
E|---------3-----------------|---------3-------------------|
			  X2

	Repeat Part 2

Part 3
	
G|-----------|-------|------------------|
D|-----------|-------|------------------|
A|-2-2h3---2-|-2-2h3-|-2-2h3-7-10-2-2h3-|
E|-------3---|-------|------------------|
	 X3

G|-----------------------|-------------------------|
D|-----------------------|-------------------------|
A|-----------------------|-------------------------|
E|-0--0-2--0-3--0-3-5--7-|-0--0-0-2--0-2-3--3-5--7-|


G|---------------------|-------------------------------|
D|---------------------|-------------------------------|
A|---------------------|--------------------------12\3-|
E|-0--0-2--3--0-3-5--7-|-0--0-0-2--0-2-3--5--8---------|

	Repeat Part 2  X2

	Repeat Part 3

G|-------------------------|---------------------------|
D|-------------------------|---------------------------|
A|-------------------------|---------------------------|
E|-0--0-2--0-2-3--0-3-5--7-|-0--0-0-2--0-2-3--0-3-5--7-|


G|-------------------------|---------------------------|
D|-------------------------|---------------------------|
A|-------------------------|---------------------------|
E|-0--0-2--0-2-3--0-3-5--7-|-0--0-0-2--0-2-3--0-3-5--8-|

	Repeat Part 2       X3

G|---------------------|
D|---------------------|
A|-2-2h3--2-2h3--2-2h3-|
E|---------------------|
            
Submit corrections

comments powered by Disqus
↑ Back to top | Carolines Spine Bass for Think About Me. Lyrics for acoustic guitar and electric guitar. Tablatures and chords are parodies/interpretations of the original songs. You may use it for private study, scholarship, research or language learning purposes only