» » »

Carolines Spine, Necro Bass tabs (ver.1)

Artists:  A B C D E F G H I J K L M N O P Q R S T U V W X Y Z # 

Necro Bass tabs (ver.1)

Carolines Spine Tabs
Rating:
0/5 (0 votes)
Necro lessons Tabs too difficult? Try these video lessons and learn fast
                Intro
G|-------------------------------------------------------|
D|-------------------------------------------------------|
A|-----------------.-.-----------------------------------|
D|-5-5-5-5--0-0-0--8-8--0--0h3h5-------------------------|

Verse
G|-----|-----|-----|-----|
D|-----|-----|-----|-----|
A|-----|-----|-----|-----|
D|--5--|--7--|--8--|--3--|
Play each note 16 times, very fast

Prechorus
A|-----------------|
D|---8-------------|
Play this note with the guitar right before the chorus

Chorus
G|-----------------------------------------|--------------------|
D|-----------------------------------------|--------------------|
A|-------------------5-5-----------.-.-.-.-|-----------------.--|
D|--5-5--3-3---5-5-5------8-8-8-8--6-6-6-6-|-5-5-5-5--3-3-3--5--|

Short Interlude
G|--------------------------------------------------------|
D|--------------------------------------------------------|
A|----------.--.-.-----------.--.------------.-.-.-.------|
D|-0-5h7h8--5--1-1--0-5h7h8--5--1---0-5h7h8--5-1-1-1--1-5-|

Verse
G|-----|-----|-----|-----|
D|-----|-----|-----|-----|
A|-----|-----|-----|-----|
D|--5--|--7--|--8--|--10-|
Play each note 16 times, very fast

Bridge
G|-------------------------|------------------------------|
D|-------------------------|------------------------------|
A|-------------------------|------------------------------|
D|-1--1-1-1--1--1-1-1--1-1-|-5--5-5-5--5--5-5-5--5-5------|
Play each of these sections twice, several times over
            
Submit corrections

comments powered by Disqus
↑ Back to top | Carolines Spine Bass for Necro. Lyrics for acoustic guitar and electric guitar. Tablatures and chords are parodies/interpretations of the original songs. You may use it for private study, scholarship, research or language learning purposes only