» » »

Attention Please Bass tabs (ver.1)

Artists:  A B C D E F G H I J K L M N O P Q R S T U V W X Y Z # 

Attention Please Bass tabs (ver.1)

Carolines Spine
Rating:
0/5 (0 votes)

Hard to play? Try these video lessons and learn fast.
                Caroline's Spine
"Attention Please"

bass tab
tuning - Eb Ab Db Gb

the tunning and made it a little less complicated than the other for some of the less experienced.)

intro

PART 1

G:--------------------------------------------------------|
D:--------------------------------------------------------|
A:----------------------------4---------------------------|
E:-5-2-2--2-0-2-4-2--2--2-0-2---2--2--2-0-2-4-2-2--2(3)---|

G:-------------------------------------------------------|
D:-------------------------------------------------------|
A:----------------------------4--------------------------|
E:-5-2-2--2-0-2-4-2--2--2-0-2---2--2--2-0-2-4-2-0--------|(let ring)

PART 2 (verse)

G:----------------------------------------------------------|
D:----------------------------------------------------------|
A:----------------------------------------------------------|
E:-2-2--2--2-012-2-2--2--2-2-0-0-0-0-0-0-0-0-5-4--5---------|

PART 3 (chorus)

G:-------------------------------------------|        |--------------------|
D:-------------------------------------------|x2, then|--------------------|
A:5-5--5---------------2-2--2----------------|        |--------------------|
E:-------------------------------------------|        |-5-5-5-5-3-3-3-3-\/-|

Part 1 x1

Part 2 (verse)x2

Part 3 (chorus)x1

Part 1 (with small alteration at end)

G:-------------------------------------------------------|
D:-------------------------------------------------------|
A:----------------------------4--------------------------|
E:-5-2-2--2-0-2-4-2--2--2-0-2---2--2--2-0-2-4-2-2-3------|

G:--------------------------------------------------------------------|
D:--------------------------------------------------------------------|
A:----------------------------4---------------------------------------|
E:-5-2-2--2-0-2-4-2--2--2-0-2---2--2--2-0-2-4-2-2/ (slide into intro--|

ending
G:--------------------------------- \                   |---|
D:---------------------------------  \  x6  then end on |---|
A:---------5-5-5-5-----------------  /                  |---|
E:-2-2-2-2---------5-5-5-5-4-4-4-4- /                   |-2-|
            
Hard to play? Try these video lessons and learn fast. | Correct




comments powered by Disqus
↑ Back to top | Tablatures and chords are parodies/interpretations of the original songs. You may use it for private study, scholarship, research or language learning purposes only