» » »

Something To Die For Tabs (ver.1)

Artists:  A B C D E F G H I J K L M N O P Q R S T U V W X Y Z # 

Something To Die For Tabs (ver.1)

Carolina Liar
Rating:
4/5 (1 vote)

Hard to play? Try these video lessons and learn fast.
                ----------------------------------------------------------------------------
----------------------------------------------------------------------------

Tuning: standard

Okay guys well im pretty sure about this however the chorus chords im a bit
sketchy about so if anyone else has something better please tell me :)

*3rd June 09 chords added below tablature

Intro/Verse (guitar 1 plays this)
e|--------------------------|
B|--------------------------|
G|--------------------------|
D|-2-2-55-2-5--10-10-10-----|
A|-2-2-55-2-5--10-10-10-----|
E|-0-0-33-0-3--8--8--8------|
   E    G         C
Alternatively,
e|--------------------------|
B|--------------------------|
G|-------------5-5-5--------|
D|-2-2-55-2-5--5-5-5--------|
A|-2-2-55-2-5--3-3-3--------|
E|-0-0-33-0-3---------------|

Chorus (guitar 1) i think
e|-------------------------------------------------------|
B|-------------------------------------------------------|
G|-------------------------------------------------------|
D|--9-9-9-9-9-9-9-9-7-7-7-7-7-7-7-7-2-2-2-2-2-2-2-2------|
A|--9-9-9-9-9-9-9-9-7-7-7-7-7-7-7-7-2-2-2-2-2-2-2-2------|
E|--7-7-7-7-7-7-7-7-5-5-5-5-5-5-5-5-0-0-0-0-0-0-0-0------|
    B               A               E 
e|-----------------------------------------------------|
B|-----------------------------------------------------|
G|-----------------------------------------------------|
D|--10101010101010109-9-9-9-9-9-9-9-7-7-7-7-7-7-7-7----|
A|--10101010101010109-9-9-9-9-9-9-9-7-7-7-7-7-7-7-7----|
E|--8-8-8-8-8-8-8-8-7-7-7-7-7-7-7-7-5-5-5-5-5-5-5-5----|
    C                B               A

e|------------------------------------------------|
B|------------------------------------------------|
G|------------------------------------------------|
D|--101010101010101010----------------------------|
A|--101010101010101010-(let the last one ring)----|
E|--8-8-8-8-8-8-8-8-8-----------------------------|
    C
and i think guitar two kicks in a little later with the main riff 
if you listen you can hear it

e|--------------------------|
B|--------------------------|
G|--------------------------|
D|-2-2-55-2-5--10-10-10-----|
A|-2-2-55-2-5--10-10-10-----|
E|-0-0-33-0-3--8--8--8------|

All in all a pretty simple song to play from a very talented up and coming band

please dont forget to rate/comment/email if you have any feedback or suggestions

| /  slide up
| \  slide down
| h  hammer-on
| p  pull-off
| ~  vibrato
| +  harmonic
| x  Mute note
============================================================================
            
Hard to play? Try these video lessons and learn fast. | Correct




comments powered by Disqus
↑ Back to top | Tablatures and chords are parodies/interpretations of the original songs. You may use it for private study, scholarship, research or language learning purposes only