» » »

Carolina Liar, Miss America Tabs (ver.1)

Artists:  A B C D E F G H I J K L M N O P Q R S T U V W X Y Z # 

Miss America Tabs (ver.1)

Carolina Liar Tabs
Rating:
0/5 (0 votes)
Hard to play? Try these video lessons and learn fast.
                
Tabs for the song: Miss America by Carolina Liar
Please rate and let me know if you have any corrections. Thank you.


Tuning: Standard (E A D G B E)


*Capo: 3rd Fret*


Intro
Guitar 1:
E||-----------------------------------|
B||-----------------------------------|
G||--0-0-0-0-0-0-0-0-0-0-0-0-0-0-0-0--|
D||--2-2-2-0-2-2-2-0-2-2-2-0-2-2-2-0--|
A||--3-3-3-3-3-3-3-3-3-3-3-3-3-3-3-3--|
E||-----------------------------------|



Verse
Guitar 1:
E||-----------------------------------|-----------------------------------|
B||-----------------------------------|-----------------------------------|
G||--0-0-0-0-0-0-0-0-0-0-0-0-0-0-0-0--|-----------------------------------|
D||--2-2-2-0-2-2-2-0-2-2-2-0-2-2-2-0--|--2-2-2-0-2-2-2-0-2-2-2-0-2-2-2-0--|
A||--3-3-3-3-3-3-3-3-3-3-3-3-3-3-3-3--|--2-2-2-2-2-2-2-2-2-2-2-2-2-2-2-2--|
E||-----------------------------------|--0-0-0-0-0-0-0-0-0-0-0-0-0-0-0-0--|


E||-------------------|-------------------|-------------------|-------------------|
B||--1-1-1-1-1-1-1-1--|-------------------|-------------------|-------------------|
G||--2-2-2-2-2-2-2-2--|--2-2-2-2-2-2-2-2--|--0-0-0-0-0-0-0-0--|-------------------|
D||--2-2-2-2-2-2-2-2--|--3-3-3-3-3-3-3-3--|--2-2-2-2-2-2-2-2--|--0-0-0-0-0-0-0-0--| x2
A||-------------------|--3-3-3-3-3-3-3-3--|--3-3-3-3-3-3-3-3--|--2-2-2-2-2-2-2-2--|
E||-------------------|-------------------|-------------------|--3-3-3-3-3-3-3-3--|


Guitar 2:
E||-------------------------------------------------------------------|
B||-------------------------------------------------------------------|
G||-------------------------------------------------------------------|
D||-------------------------------------------------------------------|
A||--3-3-3-3-5-5-5-5-7-7-7-7-7-7-5-5-3-3-3-3-3-3-3-3-5-5-5-5-5-5-5-5--|
E||-------------------------------------------------------------------|


E||-------------------------------------------------------------------|
B||-------------------------------------------------------------------|
G||-------------------------------------------------------------------|
D||-------------------------------------------------------------------|
A||--3-3-3-3-3-3-3-3-3-3-3-3-3-3-3-3-7-7-7-7-7-7-7-7-7-7-7-7-7-7-5-5--|
E||-------------------------------------------------------------------|


E||-------------------------------------------------------------------|
B||-------------------------------------------------------------------|
G||-------------------------------------------------------------------|
D||-------------------------------------------------------------------|
A||--3-3-3-3-5-5-5-5-7-7-7-7-7-7-5-5-3-3-3-3-3-3-3-3-5-5-5-5-5-5-5-5--|
E||-------------------------------------------------------------------|



Chorus
Guitar 1:
E||--------------------------------------------------------------------|
B||--------------------------------------------------------------------|
G||--------------------------------------------------------------------|
D||--7-7-7-7-7-7-7-7\3-3-3-3-3-3-3-3/1010101010101010\5-5-5-5-5-5-5-5--| x2
A||--7-7-7-7-7-7-7-7\3-3-3-3-3-3-3-3/1010101010101010\5-5-5-5-5-5-5-5--|
E||--5-5-5-5-5-5-5-5\1-1-1-1-1-1-1-1/8-8-8-8-8-8-8-8-\3-3-3-3-3-3-3-3--|




Verse
Guitar 1:
E||-----------------------------------|-----------------------------------|
B||-----------------------------------|-----------------------------------|
G||--0-0-0-0-0-0-0-0-0-0-0-0-0-0-0-0--|-----------------------------------|
D||--2-2-2-0-2-2-2-0-2-2-2-0-2-2-2-0--|--2-2-2-0-2-2-2-0-2-2-2-0-2-2-2-0--|
A||--3-3-3-3-3-3-3-3-3-3-3-3-3-3-3-3--|--2-2-2-2-2-2-2-2-2-2-2-2-2-2-2-2--|
E||-----------------------------------|--0-0-0-0-0-0-0-0-0-0-0-0-0-0-0-0--|


E||-------------------|-------------------|-------------------|-------------------|
B||--1-1-1-1-1-1-1-1--|-------------------|-------------------|-------------------|
G||--2-2-2-2-2-2-2-2--|--2-2-2-2-2-2-2-2--|--0-0-0-0-0-0-0-0--|-------------------|
D||--2-2-2-2-2-2-2-2--|--3-3-3-3-3-3-3-3--|--2-2-2-2-2-2-2-2--|--0-0-0-0-0-0-0-0--|
A||-------------------|--3-3-3-3-3-3-3-3--|--3-3-3-3-3-3-3-3--|--2-2-2-2-2-2-2-2--|
E||-------------------|-------------------|-------------------|--3-3-3-3-3-3-3-3--|


E||-----------------------------------|-----------------------------------|
B||-----------------------------------|-----------------------------------|
G||--0-0-0-0-0-0-0-0-0-0-0-0-0-0-0-0--|-----------------------------------|
D||--2-2-2-0-2-2-2-0-2-2-2-0-2-2-2-0--|--2-2-2-0-2-2-2-0-2-2-2-0-2-2-2-0--|
A||--3-3-3-3-3-3-3-3-3-3-3-3-3-3-3-3--|--2-2-2-2-2-2-2-2-2-2-2-2-2-2-2-2--|
E||-----------------------------------|--0-0-0-0-0-0-0-0-0-0-0-0-0-0-0-0--|


E||-------------------|-------------------|-------------------|------|
B||--1-1-1-1-1-1-1-1--|-------------------|-------------------|------|
G||--2-2-2-2-2-2-2-2--|--2-2-2-2-2-2-2-2--|--0-0-0-0-0-0-0-0--|------|
D||--2-2-2-2-2-2-2-2--|--3-3-3-3-3-3-3-3--|--2-2-2-2-2-2-2-2--|--5~--|
A||-------------------|--3-3-3-3-3-3-3-3--|--3-3-3-3-3-3-3-3--|--5~--|
E||-------------------|-------------------|-------------------|--3~--|


Guitar 2:
E||-------------------------------------------------------------------|
B||-------------------------------------------------------------------|
G||-------------------------------------------------------------------|
D||-------------------------------------------------------------------|
A||--3-3-3-3-3-3-3-3-3-3-3-3-3-3-3-3-7-7-7-7-7-7-7-7-7-7-7-7-7-7-5-5--|
E||-------------------------------------------------------------------|


E||-------------------------------------------------------------------|
B||-------------------------------------------------------------------|
G||-------------------------------------------------------------------|
D||-------------------------------------------------------------------| x2
A||--3-3-3-3-5-5-5-5-7-7-7-7-7-7-5-5-3-3-3-3-3-3-3-3-5-5-5-5-5-5-5-5--|
E||-------------------------------------------------------------------|



Chorus
Guitar 1:
E||--------------------------------------------------------------------|
B||--------------------------------------------------------------------|
G||--------------------------------------------------------------------|
D||--7-7-7-7-7-7-7-7\3-3-3-3-3-3-3-3/1010101010101010\5-5-5-5-5-5-5-5--| x4
A||--7-7-7-7-7-7-7-7\3-3-3-3-3-3-3-3/1010101010101010\5-5-5-5-5-5-5-5--|
E||--5-5-5-5-5-5-5-5\1-1-1-1-1-1-1-1/8-8-8-8-8-8-8-8-\3-3-3-3-3-3-3-3--|



Bridge
Guitar 1:
E||-------------------------------------------------------------------|
B||-------------------------------------------------------------------|
G||-------------------------------------------------------------------|
D||-------------------------------------------------------------------|
A||-------------------------------------------------------------------|
E||--1-1-1-1-1-1-1-1-1-1-1-1-1-1-1-1-5-5-5-5-5-5-5-5-7-7-7-7-7-7-7-7--|


E||----------------------------------------------------------------------|
B||----------------------------------------------------------------------|
G||----------------------------------------------------------------------|
D||----------------------------------------------------------------------|
A||----------------------------------------------------------------------|
E||--1-1-1-1-1-1-1-1-1-1-1-1-1-1-1-1-3-3-3-3-3-3-3-3-3-3-3-3-3-3-3-3/8~--|


Guitar 2:
E||-----------------------------------|-----------------------------------|
B||-----------------------------------|-----------------------------------|
G||--0-0-0-0-0-0-0-0-0-0-0-0-0-0-0-0--|-----------------------------------|
D||--2-2-2-0-2-2-2-0-2-2-2-0-2-2-2-0--|--2-2-2-0-2-2-2-0-2-2-2-0-2-2-2-0--|
A||--3-3-3-3-3-3-3-3-3-3-3-3-3-3-3-3--|--2-2-2-2-2-2-2-2-2-2-2-2-2-2-2-2--|
E||-----------------------------------|--0-0-0-0-0-0-0-0-0-0-0-0-0-0-0-0--|


E||-------------------|-------------------|-------------------|-------------------|
B||--1-1-1-1-1-1-1-1--|-------------------|-------------------|-------------------|
G||--2-2-2-2-2-2-2-2--|--2-2-2-2-2-2-2-2--|--0-0-0-0-0-0-0-0--|-------------------|
D||--2-2-2-2-2-2-2-2--|--3-3-3-3-3-3-3-3--|--2-2-2-2-2-2-2-2--|--0-0-0-0-0-0-0-0--|
A||-------------------|--3-3-3-3-3-3-3-3--|--3-3-3-3-3-3-3-3--|--2-2-2-2-2-2-2-2--|
E||-------------------|-------------------|-------------------|--3-3-3-3-3-3-3-3--|



Chorus
Guitar 1:
E||----------------------------------------------------------------------------|
B||----------------------------------------------------------------------------|
G||----------------------------------------------------------------------------|
D||--(x-x-x)-7-7-7-7-7-7-7-7\3-3-3-3-3-3-3-3/1010101010101010\5-5-5-5-5-5-5-5--| x4
A||--(x-x-x)-7-7-7-7-7-7-7-7\3-3-3-3-3-3-3-3/1010101010101010\5-5-5-5-5-5-5-5--|
E||--(x-x-x)-5-5-5-5-5-5-5-5\1-1-1-1-1-1-1-1/8-8-8-8-8-8-8-8-\3-3-3-3-3-3-3-3--|



Chorus / Outro
Guitar 1:
E||--------------------------------------------------------------------|
B||--------------------------------------------------------------------|
G||--------------------------------------------------------------------|
D||--7-7-7-7-7-7-7-7\3-3-3-3-3-3-3-3/1010101010101010\5-5-5-5-5-5-5-5--| x4
A||--7-7-7-7-7-7-7-7\3-3-3-3-3-3-3-3/1010101010101010\5-5-5-5-5-5-5-5--|
E||--5-5-5-5-5-5-5-5\1-1-1-1-1-1-1-1/8-8-8-8-8-8-8-8-\3-3-3-3-3-3-3-3--|


E||----------------------|
B||----------------------|
G||--5~------------------|
D||--7~---------------\--|
A||--x----------------\--|
E||--5~---------------\--|




Tablature Legend
----------------
 h   - hammer-on
 p   - pull-off
 b   - bend
 r   - release bend
 *   - pinch harmonic
 '   - natural harmonic
 x   - mute note
 .   - palm mute
 /   - slide down
 \   - slide up
            

comments powered by Disqus
↑ Back to top | Carolina Liar Tabs for Miss America. Lyrics for acoustic guitar and electric guitar. Tablatures and chords are parodies/interpretations of the original songs. You may use it for private study, scholarship, research or language learning purposes only