» » »

I'm Not Over Bass tabs (ver.1)

Artists:  A B C D E F G H I J K L M N O P Q R S T U V W X Y Z # 

I'm Not Over Bass tabs (ver.1)

Carolina Liar
Rating:
0/5 (0 votes)

Hard to play? Try these video lessons and learn fast.
                This work is the author's, and may not be used anywhere else without the
author's request. 

If you have any comments or suggestions, please contact me at johndanpg2
------------------------------------------------------------------------
Order of song

Verse 
Chorus
Verse
Chorus
Bridge
Chorus x2

The bass doesn't come in until the lyrics come in.

Verse
G|---------------------------|
D|---------------------------|
A|-4--4----4--4--4--------4--| 
E|---------------------------|

G|---------------------------|
D|---------------------------|
A|-7--7----7--7--7--------7--| 
E|---------------------------|

G|---------------------------|
D|---------------------------|
A|---------------------------| 
E|-7--7----7--7--7--------7--|

G|---------------------------|
D|---------------------------|
A|-9--9----9--9--9--------9--| 
E|---------------------------|  x4 On the fourth time, play the last bar
                                   like this.  
                                   G|---------------------------|
                                   D|---------------------------|
                                   A|--9--9--9--9--9--9--9--9---| 
Chorus                             E|---------------------------|
G|---------------------------|
D|---------------------------|
A|--4--4--4--4--4--4--4--4---| 
E|---------------------------|

G|---------------------------|
D|---------------------------|
A|--7--7--7--7--7--7--7--7---| 
E|---------------------------|

G|---------------------------|
D|---------------------------|
A|---------------------------| 
E|--7--7--7--7--7--7--7--7---|

G|---------------------------|
D|---------------------------|
A|--9--9--9--9--9--9--9--9---| 
E|---------------------------|  x4

Bridge
G|---------------------------|  After the second chorus, don't play the
D|---------------------------|  first bar.
A|--4------------------------| 
E|---------------------------|


G|---------------------------|
D|---------------------------|
A|--7------------------------| 
E|---------------------------|

G|---------------------------|
D|---------------------------|
A|---------------------------| 
E|--7------------------------|

G|---------------------------|    On the third time, play note on the A
D|---------------------------|    string like you did the fourth time in
A|--9------------------------|    the verse.     
E|---------------------------| x3
            
Hard to play? Try these video lessons and learn fast. | Correct




comments powered by Disqus
↑ Back to top | Tablatures and chords are parodies/interpretations of the original songs. You may use it for private study, scholarship, research or language learning purposes only