>
 >
I Feel The Earth Move

I Feel The Earth Move Guitar Tabs

Carole King - I Feel The Earth Move chords, tabs, tablatures, lyrics

Guitar lessons | Add/correct | Request | Top 50 tabs Artists:  A B C D E F G H I J K L M N O P Q R S T U V W X Y Z 0-9

I Feel The Earth Move Guitar Tabs – Carole King

CD, Sheet music, Poster

Do you like I Feel The Earth Move? Share with your friends now
ChordsChords v2TabsUkulele
------------------------------------------------------------------------
------------------------------------------------------------------------

if you play this with someone capoed on the first it sounds nice

Tuning: standard capo 3rd (Am is Cm)

intro tab:

e|---------------------------------------------------|
B|---------------------------------------------------|
G|---------------------------------------------------|
D|--------5---------5---------5--4------4--4---------|
A|--0-0---7---0-0---7---0-0---7--5---0--5--5---------|
E|---------------------------------------------------|


Intro:  Am7     D     Am7      D  

           Am7           D*                        Am7       (riff 1)
I feel the earth, move, under my feet, I feel the sky tumbling down 
          D7                                 Am7          D*
I feel my heart start to trembling, whenever you're around


Fmaj7  Cmaj7       Fmaj7           Dm7                      Dm7/G
Oh,    baby, when I see your face, mellow as the month of May
Fmaj7  Cmaj7            Fmaj7               Dm7            Dm7/G  E7
Aw,    darling, I can't stand it , When you look at me that way-hey 


           Am7           D*                        Am7       (riff 1)
I feel the earth, move, under my feet , I feel the sky tumbling down
          D7                                 Am7          (riff 2)
I feel my heart start to trembling , whenever, you're ar-ound

Solo:  Am7     D*  (8 bars)   Am7     D7  (8 bars)

Ooh, darling, when you're near me, and you tenderly call my name
I know that, my emotions , are something that I just can't tame
I've just got to have ye baby,    ah, ah, ah,      ah, ah, ah,   ye, yeah

Am7                       D*
I feel the earth, move, under my feet
I feel the sky tumbling down, a tumbling down
I feel the earth move, under my feet 
I feel the sky tumbling down, a tumbling down 

Am7             D7               Am7      D7
I just lose control, down to my very soul 
I getta, hot and cold, all over, all over, all over, all over 

Am7                       D*
I feel the earth, move, under my feet, 
I feel the sky tumbling down, a tumbling down, 
I feel the earth move, under my feet

           Am7   (riff 3)
I feel the sky tumbling down, a tumbling down,
A tumbling down, a tumbling down, a tumbling down, tumbling do-wn


************************************

chords

    D*   Fmaj7   Cmaj7  Dm7   Dm7/G
e|--0------5------3------1-----1----------|
B|--3------5------5------1-----1----------|
G|--0------5------4------2-----2----------|
D|--5------3------5------0-----0----------|
A|--0-------------3------------3----------|
E|-----------------------------3----------|



riff 1:

going from Am7 to D7

       &    1  &  2  &  3  &  4  &  1
e|---------------------------------------------------|
B|-----1--3s5--3--1-----3--1-------------------------|
G|-------------------2--------2p0--------------------|
D|-------------------------------2--0----------------|
A|---------------------------------------------------|
E|---------------------------------------------------|

riff 2:

  ...you're aro-----und                              solo....
   | 1 2 3 4 | 1 2 3 4 | 1 2 3 4 | 1 & 2 & 3 & 4 & | 1 2 3 4 | 
e|---0---------0---------0---------0-x---x---x---0---0----------|
B|---1---------3---------5---------7-x---x---x---0---1----------|
G|---0---------0---------0---------0-7---8---9---0---0----------|
D|---2---------4---------5---------7-x---x---x---0---2----------|
A|---0---------0---------0---------0-5---6---7---0---0----------|
E|-----------------------------------x---x---x------------------|

riff 3:

 I feel the sky tum., a tum., a tum., a tum., a tum., tumbling do-wn
e|---------------0------0-------0-------0-------0-----0------------|
B|---------------1------3-------5-------3-------1-----3------------|
G|---------------0------0-------0-------0-------2-----0------------|
D|---------------2------4-------5-------4-------3-----4------------|
A|---------------0------0-------0-------0-------0-----0------------|
E|-----------------------------------------------------------------|



************************************

| /   slide up
| \   slide down
| h   hammer-on
| p   pull-off
| ~   vibrato
| +   harmonic
| x   Mute note
| b   Bend
| pb  Pre-bend
| br  Bend release
| pbr Pre-bend release
| brb Bend release bend

************************************





Comments


Popular Carole King tabs & chords
A Natural Woman Chords
Carry Your Load Chords
Growing Away From Me 1 Chords
I Feel The Earth Move Chords
Jazzman 1 Chords
Nightingale Chords
Surely Chords
Up On The Roof 2 Chords
Ferguson Road Ukulele
You Still Want Her Ukulele


Song lyrics



↑ Back to top | Tablatures and chords are parodies/interpretations of the original songs. You may use it for private study, scholarship, research or language learning purposes only
© 2014 AZChords.com Contact us | Privacy policy | DMCA | Add/correct tabs | Request tabs | Top 50 tabs