» » »

Carnifex, To My Dead And Dark Dreams Tabs (ver.1)

Artists:  A B C D E F G H I J K L M N O P Q R S T U V W X Y Z # 

To My Dead And Dark Dreams Tabs (ver.1)

Carnifex Tabs
 Rating:
4.4/5 (7 votes)
To My Dead And Dark Dreams lessons Tabs too difficult? Try these video lessons and learn fast
1
                -------------------------------------------------------------------------------
                             CARNIFEX - TO MY DEAD AND DARK DREAMS
-------------------------------------------------------------------------------

Tuning: Drop A

NOTE: For the riffs that are played on the A string (tuned down to E), tremolo pick the notes.

Intro (x4)
E |---------------------------------------------------------------------------|
F#|---------------------------------------------------------------------------|
D |---------------------------------------------------------------------------|
A |---------------------------------------------------------------------------|
E |-------------1-----2-----3-------------1-----2-----------------------------|
A |-000-000-00001-00002-00003-000-000-00001-00002-6-5-------------------------|
    ... ... ....  ....  ....  ... ... ....  ....

Verse 1: Part 1(x2)
E |---------------------------------------------------------------------------|
F#|---------------------------------------------------------------------------|
D |---------------------------------------------------------------------------|
A |---------------------------------------------------------------------------|
E |---------------------------------------------------------------------------|
A |-000-000----000-000----000-000----000-000----000-000-6-5-------------------|
    ... ...    ... ...    ... ...    ... ...    ... ...

Verse 1: Part 2 (x4)
E |---------------------------------------------------------------------------|
F#|---------------------------------------------------------------------------|
D |---------------------------------------------------------------------------|
A |---------------------------------------------------------------------------|
E |---------------------------------------------------------------------------|
A |--0000-0000-0000-0000-0000-------------------------------------------------|
     .... .... .... .... ....

Bridge (x2)

E |---------------------------------------------------------------------------|
F#|---------------------------------------------------------------------------|
D |---------------------------------------------------------------------------|
A |---------------------------------------------------------------------------|
E |--8-7-5-10-8-7-12-10-8-13-12-10-8-12-7-10----------------------------------|
A |---------------------------------------------------------------------------|

E |---------------------------------------------------------------------------|
F#|---------------------------------------------------------------------------|
D |---------------------------------------------------------------------------|
A |---------------------------------------------------------------------------|
E |--8-7-5-10-8-7-12-10-8-13-12-10-8-7-10*------------------------------------|
A |---------------------------------------------------------------------------|

Breakdown: Part 1 (x8)

E |---------------------------------------------------------------------------|
F#|---------------------------------------------------------------------------|
D |---------------------------------------------------------------------------|
A |---------------------------------------------------------------------------|
E |----------5p4--------------------------------------------------------------|
A |-0-0-0-0------0-0-0-0-4h5-0-0-3p2------------------------------------------|
    . . . .      . . . .     . .

Breakdown: Part 2 (x2)
E |---------------------------------------------------------------------------|
F#|---------------------------------------------------------------------------|
D |---------------------------------------------------------------------------|
A |-----------------4h7-3h6------------------------4h7-3h6--------------------|
E |---------5h8-4h7-------------------------5h8-4h7------------4h7------------|
A |-000-000-----------------000-000-000-000----------------4h7----------------|
    ... ...                 ... ... ... ...

E |---------------------------------------------------------------------------|
F#|---------------------------------------------------------------------------|
D |---------------------------------------------------------------------------|
A |-----------------4h7-3h6------------------------4h7-3h6--------------------|
E |---------5h8-4h7-------------------------5h8-4h7--------------7------------|
A |-000-000-----------------000-000-000-000----------------0h4h5--------------|
    ... ...                 ... ... ... ...

Breakdown: Part 3: Guitar 1 (x2)
E |---------------------------------------------------------------------------|
F#|---------------------------------------------------------------------------|
D |---------------------------------------------------------------------------|
A |-----------------4h7-3h6------------------------4h7-3h6--------------------|
E |---------5h8-4h7-------------------------5h8-4h7------------4h7------------|
A |-000-000-----------------000-000-000-000----------------4h7----------------|
    ... ...                 ... ... ... ...

Guitar 2
E |---------------------------------------------------------------------------|
F#|---------------------------------------------------------------------------|
D |---------------------------------------------------------------------------|
A |------------------7h10-6h9---------------------------7h10-6h9--------------|
E |---------8h11-7h10-------------------------8h11-7h10--------------4h7------|
A |-000-000-------------------000-000-000-000--------------------4h7----------|
    ... ...                   ... ... ... ...

Breakdown: Part 4 (x2)
E |---------------------------------------------------------------------------|
F#|---------------------------------------------------------------------------|
D |---------------------------------------------------------------------------|
A |---------------------------------------------------------------------------|
E |------------------------------4h7------------------------------------------|
A |-000-000--000-000-000-000-4h7----------------------------------------------|
    ... ...  ... ... ... ...

Breakdown: Part 5 (x4)
E |---------------------------------------------------------------------------|
F#|---------------------------------------------------------------------------|
D |---------------------------------------------------------------------------|
A |---------------------------------------------------------------------------|
E |-1111111--1111111--11110---------------------------------------------------|
A |-1111111--1111111--11110---------------------------------------------------|
    .......  .......  .....

Bridge 2 (x4)
E |---------------------------------------------------------------------------|
F#|---------------------------------------------------------------------------|
D |---------------------------------------------------------------------------|
A |---------------------------------------------------------------------------|
E |-8-7-8-10-12-13-12-10-7-8-7-5-4-5-7-0--------------------------------------|
A |---------------------------------------------------------------------------|

Yet Another Breakdown: Part 1 (x4)
E |---------------------------------------------------------------------------|
F#|---------------------------------------------------------------------------|
D |---------------------------------------------------------------------------|
A |---------------------------------------------------------------------------|
E |-0-1-2-0-2-3-0-1-2-0-2-3-0-5-6-1-------------------------------------------|
A |-0-1-2-0-2-3-0-1-2-0-2-3-0-5-6-1-------------------------------------------|
    . . . . . . . . . . . . .

Yet Another Breakdown: Part II (x2)
E |---------------------------------------------------------------------------|
F#|---------------------------------------------------------------------------|
D |---------------------------------------------------------------------------|
A |---------------------------------------------------------------------------|
E |-0-1-2-0-2-1-------------0-1-2-0-2-1---------------------------------------|
A |-0-1-2-0-2-1---5-6-1-----0-1-2-0-2-1----0h1-6*-----------------------------|
    . . . . . .             . . . . . .

so this is the tab for a pretty good song, and im positive its 98-100% accurate. i 
put it online if i wasnt sure it was correct. so enjoy playing this pretty easy and amazingly 
song.
            
Submit corrections

comments powered by Disqus
↑ Back to top | Carnifex Tabs for To My Dead And Dark Dreams. Lyrics for acoustic guitar and electric guitar. 1 Tablatures and chords are parodies/interpretations of the original songs. You may use it for private study, scholarship, research or language learning purposes only