>
 >
Slit Wrist Savior 1

Slit Wrist Savior 1 Guitar Tabs

Carnifex - Slit Wrist Savior 1 chords, tabs, tablatures, lyrics

Guitar lessons | Add/correct | Request | Top 50 tabs Artists:  A B C D E F G H I J K L M N O P Q R S T U V W X Y Z 0-9

Slit Wrist Savior 1 Guitar Tabs – Carnifex

CD, Sheet music, Poster

Do you like Slit Wrist Savior 1? Share with your friends now
TabsTabs v2Tabs v3
NOTE: i did NOT tab this, im simply posting it for the folks that wanted to learn the 
full credit goes to cory arford.



Key:
<#>: pinch harmonic
number underlined=palm mute
h: hammer on
p: pull off
/: Slide


Riff "A"-Intro with the cymbal catches
E|-----------------------------------------------------|
B|-----------------------------------------------------|
G|-----------------------------------------------------|
D|-----------------------------------------------------|
A|-----------------------------------------------------|
E|----0--1---0--1---0--1---0--1---0--1--<2>------------|
A|----0--1---0--1---0--1---0--1---0--1-----<3>---------|
P.M.  -  -   -  -   -  -   -  -   -  -


Riff "B"
E|----------------------------------------------------------------|
B|----------------------------------------------------------------|
G|----------------------------------------------------------------|
D|----------------------------------------------------------------|
A|----------------------------------------------------------------|
E|----0--1-------0--1-------0--1--<4>--0--1--<3>--0--1--<2>-------|
A|----0--1--<3>--0--1--<4>--0--1-------0--1-------0--1-----<3>----|
P.M.  -  -       -  -       -  -       -  -       -  -

THEN PLAY THE INTRO RIFF 4 TIMES


Riff "C"-Trem Picked
(I'm not typing each number a million times)               Guitar 2-the harmony
E|-----------------------------------|-----------------------------------|
B|-----------------------------------|-----------------------------------|
G|-----------------------------------|-----------------------------------|
D|-----------------------------------|-----------------------------------|
A|-----------------------------------|-----------------------------------|
E|----------------------1--1---------|----------------------3--3---------|
A|--0--1--4--1--0--1--4--4--4--1--4--|--3--4--7--4--3--4--7--7--7--4--7--|

Riff "D"
E|------------------------------------------------------------------|
B|------------------------------------------------------------------|
G|------------------------------------------------------------------|
D|------------------------------------------------------------------|
A|-------2-3------------------------------2-3-----------------------|
E|-------4-5------------------------------4-5-----------8-----8-7-4-|
A|---0-0-----0-0-0-0-0-3-2-0-5-0-5-6--0-0-----0-0-0-0-0---0-0-------|
P.M. - -     - - - -                  - -     - - - -     - -


Riff "E"-Trem Picked-harmony is 3 frets higher for every note.
just move up and play the same thing
E|----------------------------------------------------------------------|
B|----------------------------------------------------------------------|
G|----------------------------------------------------------------------|
D|----------------------------------------------------------------------|
A|------------------------------------------------------------7-8-7-----|
E|------7-8-10-8-7-5----5-7-8-10-8-7----7-8-10-8-7-5----5-7-8-----------|
A|---8---------------5---------------8---------------5------------------|

Riff "F"(1) All tremmed first part(all underlined) played by 1 guitar
all others join in after that.
E|----------------------------------------------------------------|
B|----------------------------------------------------------------|
G|----------------------------------------------------------------|
D|----------------------------------------------------------------|
A|----------------------------------------------------------------|
E|----------------------------------------------------------------|
A|--0--7--6--1--0--7--8--3----------------------------------------|


Riff "F"(2)
E|-------------------------------------------------------------|
B|-------------------------------------------------------------|
G|-------------------------------------------------------------|
D|-------------------------------------------------------------|
A|-------------------------------------------------------------|
E|--0---5---4---1---0---5---6---1------------------------------|
A|--0---7---6---1---0---7---8---3------------------------------|

Riff "G" this just a constant strumming 4th count ends with open ring out
E|-----------------------------------------------------------|
B|-----------------------------------------------------------|
G|-----------------------------------------------------------|
D|-----------------------------------------------------------|
A|----------------6---10-------------------------------------|
E|----0---5---4---3---7--------------------------------------|
A|----0---8---7---3---7--------------------------------------|


I'm sure you all know the breakdown
FINE FUCK YOU THEN!
Riff "H"-All palm muted
E|----------------------------------------|
B|----------------------------------------|
G|----------------------------------------|
D|----------------------------------------|
A|---0---1---0---4---0---1--0--2--1-------|
E|---0---1---0---4---0---1--0--2--1--<2>--|
A|---0---1---0---4---0---1--0--2--1-------|
The pinches are just on that string then one down then one up and so on and so forth


Last riffage I just put the diminished chords and you should already know the pattern
Part 1       Part 2
E|----------|--------------------------|
B|----------|--------------------------|
G|----------|--------------------------|
D|----------|--------------------------|
A|----3--2--|---1----------------------|
E|----2--1--|---0----------------------|
A|----3--2--|---1----------------------|
P.M.  -  -      -

There's that song. I'll put another one up later.
Enjoy people!!!!!!!!





Comments


Popular Carnifex tabs & chords
Dead Against The Gate Tabs
Genocide Initiative Intro Tabs
Hell Chose Me 1 Tabs
Hell Chose Me 3 Tabs
Lie To My Face 2 Tabs
Names Mean Nothing 1 Tabs
Sadistic Embrace Tabs
Sorrow Spell Intro Tabs
Sorrowspell Tabs
The Diseased And The Poisoned Intro 1 Tabs


Song lyrics



↑ Back to top | Tablatures and chords are parodies/interpretations of the original songs. You may use it for private study, scholarship, research or language learning purposes only
© 2014 AZChords.com Contact us | Privacy policy | DMCA | Add/correct tabs | Request tabs | Top 50 tabs