» » »

Carnifex, Slit Wrist Savior Tabs (ver.1)

Artists:  A B C D E F G H I J K L M N O P Q R S T U V W X Y Z # 

Slit Wrist Savior Tabs (ver.1)

Carnifex Tabs
 Rating:
4.3/5 (6 votes)
Slit Wrist Savior lessons Tabs too difficult? Try these video lessons and learn fast
                |-------------------------------------------------------------------------------|
|-------------------------------------------------------------------------------|

Tuning: Drop A (A E A D F# B)


Carnifex plays in drop A with 7 string guitars, but this tab is transcribed
for standard 6 string guitars tuned to drop A.
I'm pretty sure this isn't an accurate tab, so you can use it more as an
outline for what to play.
I'm sorry if the tab is a bit confusing, I'm not very good with them.
Corrections are definitely welcome. :]


|-------------------|
|      Legend       |
|-------------------|
|                   |
|. = Palm Mute      |
|                   |
|* = Pinch Harmonic |
|                   |
|" = Tremolo pick   |
|                   |
|~ = Let ring       |
|                   |
|-------------------|


  (0:00 - 0:08)
B |---------------------------------------------------------------------------|
F#|---------------------------------------------------------------------------|
D |---------------------------------------------------------------------------|
A |-001--001--001--001--001---------------------------------------------------| 2 Times
E |-001--001--001--001--001--3*-----------------------------------------------|
A |-001--001--001--001--001-----2*--------------------------------------------|
    ...  ...  ...  ...  ... 

  (0:09 - 0:26)
B |---------------------------------------------------------------------------|
F#|---------------------------------------------------------------------------|
D |---------------------------------------------------------------------------|
A |-001-----001-----001----001-----001----------------------------------------| 4 Times
E |-001-----001-----001-3*-001-3*--001--3*------------------------------------|
A |-001-2*--001-2*--001----001-----001-----2*---------------------------------|
    ...     ...     ...    ...     ...

  (0:27 - 0:43)
B |---------------------------------------------------------------------------|
F#|---------------------------------------------------------------------------|
D |---------------------------------------------------------------------------|
A |-001--001--001--001--001---------------------------------------------------| 4 Times
E |-001--001--001--001--001--3*-----------------------------------------------|
A |-001--001--001--001--001-----2*--------------------------------------------|
    ...  ...  ...  ...  ...

  (0:44 - 0:52)
B |---------------------------------------------------------------------------|
F#|---------------------------------------------------------------------------|
D |---------------------------------------------------------------------------|
A |---------------------------------------------------------------------------| 2 Times
E |-------------------------------------------2"--1"--2"--1"------------------|
A |-0"--1"--3"--2"--3"--2"--1"--0"----0"--1"------------------2"--1"----------|

  (0:53 - 1:01) 
B |---------------------------------------------------------------------------|
F#|---------------------------------------------------------------------------|
D |---------------------------------------------------------------------------|
A |---------------------------------------------------------------------------| 2 Times
E |-------------------------------------------3"--2"--3"--2"------------------|
A |-0"--1"--3"--2"--3"--2"--1"--0"----0"--1"------------------3"--2"----------|

  (1:02 - 1:19)
B |---------------------------------------------------------------------------|
F#|---------------------------------------------------------------------------|
D |---------------------------------------------------------------------------|
A |-00-------00000-----------------00-------00000-----------------------------| 4 Times
E |-00--4h5--00000-----------------00--4h5--00000--8--7h8p7--5*---------------|
A |-00-------00000--3--2h3p2--3h5--00-------00000-----------------------------|
    ..       .....                 ..       .....

  Only play the pinch harmonic on 5 the first time, the rest just play the note

  (1:02 - 1:36)
B |---------------------------------------------------------------------------|
F#|---------------------------------------------------------------------------|
D |---------------------------------------------------------------------------|
A |---------------------------------------------5"----------------------------| 4 Times
E |-----5"--7"--8"--7"--5"------0"--5"--7"--8"-----8"--7"---------------------|
A |-8"----------------------8"------------------------------------------------|
                           |                               |
                           |            2nd Time           |
                          A|---------------------5*--------|
                          E|-----0"--5"--7"--8"------------|
                          A|-8"----------------------------|
                                        4th Time           
                          A|---------------------4*--------|
                          E|-----0"--5"--7"--8"------------|
                          A|-8"----------------------------|



  (1:37 - 1:45)
B |---------------------------------------------------------------------------|
F#|---------------------------------------------------------------------------|
D |---------------------------------------------------------------------------|
A |---------------------------------------------------------------------------| 2 Times
E |---------------------------------------------------------------------------|
A |-0"--7"--6"--1"--0"--7"--8"--3"--------------------------------------------|

  (1:46 - 1:55)
B |---------------------------------------------------------------------------|
F#|---------------------------------------------------------------------------|
D |---------------------------------------------------------------------------|
A |-0----7----6----1----0----7----8----3--------------------------------------| 2 Times
E |-0----7----6----1----0----7----8----3--------------------------------------|
A |-0----7----6----1----0----7----8----3--------------------------------------|

  (1:56 - 2:04)
B |---------------------------------------------------------------------------|
F#|---------------------------------------------------------------------------|
D |---------------------------------------------------------------------------|
A |---------------------------------------------------------------------------| 2 Times
E |---------------------------------------------------------------------------|
A |-0"---7"---6"---1"--3"-----------------------------------------------------|

  (2:05 - 2:15)
B |-------------------------------------------------|----------|--------------|
F#|-------------------------------------------------|----------|--------------|
D |-------------------------------------------------|----------|--------------|
A |-------------------------------------------------|----------|-1--3--0~-----| 2 Times
E |---0---0---0---0---1---1---1---1---3---3---3---3-|----------|-1--3--0~-----|
A |-0---0---0---0---0---0---0---0---0---0---0---0---|-1"--3"---|-1--3--0~-----|
    . . . . . . . . . . . . . . . . . . . . . . . . | 1st Time | 2nd Time Ending
                                                    |  Ending  |

  (2:22 - 2:45)
B |---------------------------------------------------------------------------|
F#|---------------------------------------------------------------------------|
D |---------------------------------------------------------------------------|
A |--------------------------------------3*-----------------------------------| 6 Times
E |-0-000-0--0-000-0-000-000---------2*---------------------------------------|
A |-0-000-0--0-000-0-000-000--------------------------------------------------|
    . ... .  . ... . ... ...       ^   ^
                              2nd time only
                    
  (2:46 - 3:00)                                           4th Time
B |------------------------------|            |-------------------------------|
F#|------------------------------|            |-------------------------------|
D |------------------------------|            |-------------------------------|
A |------------------------------| 8 Times    |-----3*--2*--------------------| 
E |-1-111-1-111-111--------------|            |-1---------3*--2*--1*----------|
A |-1-111-1-111-111--------------|            |-1---------------------3*------|
    . ... . ... ...                             .

                      

                   |----------------------------------------|
                   |                                        | 
                   |         "FINE, f**k YOU THEN."         |
                   |                                        |
                   |----------------------------------------|

  (3:03 - 3:20)
B |---------------------------------------------------------------------------|
F#|---------------------------------------------------------------------------|
D |---------------------------------------------------------------------------|
A |-------------------------------------3*------------------------------------| 4 Times
E |-0--1--0--3--0--1-0-1-0--2*------------------------------------------------|
A |-0--1--0--3--0--1-0-1-0--------3*------------------------------------------|
    .  .  .  .  .  . . . .  ^     ^     ^
                      1st & 3rd  2nd    4th
                         Time    Time   Time

  (3:21 - 3:28)
B |---------------------------------------------------------------------------|
F#|---------------------------------------------------------------------------|
D |---------------------------------------------------------------------------|
A |---------------------------------------------------------------------------| 2 Times
E |-----------------------------------2*--------------------------------------|
A |-0"--1"--0"--3"--0"--1"-0"-1"-0"-----------3*------------------------------|
                                      ^       ^  
                                     1st     2nd
                                     Time    Time             

  (3:29 - 3:36)
B |---------------------------------------------------------------------------|
F#|---------------------------------------------------------------------------|
D |---------------------------------------------------------------------------|
A |-------------------------------------3*------------------------------------| 2 Times
E |-0--1--0--3--0--1-0-1-0----2*----------------------------------------------|
A |-0--1--0--3--0--1-0-1-0----------------------------------------------------|
    .  .  .  .  .  . . . .    ^         ^
                             1st       2nd
                             Time      Time


  (3:37 - 3:51)
B |---------------------------------------------------------------------------|
F#|---------------------------------------------------------------------------|
D |---------------------------------------------------------------------------|
A |---------------------------------------------------------------------------| 4 Times
E |-2-1-0---2-1-0-2-1-0-------------------------------------------------------|
A |-3-2-1---3-2-1-3-2-1-------------------------------------------------------|
    . . .   . . . . . .


  (3:51 - 4:07)
B |---------------------------------------------------------------------------|
F#|---------------------------------------------------------------------------|
D |---------------------------------------------------------------------------|
A |---------------------------------------------------------------------------| 4 Times
E |-0-0-0---0-0-0--0-0-0------------------------------------------------------|
A |-1-1-1---1-1-1--1-1-1------------------------------------------------------|
    . . .   . . .  . . .


  (End on)
B |---------|
F#|---------|
D |---------|
A |-0~------|
E |-0~------|
A |-0~------|
            
Submit corrections

comments powered by Disqus
↑ Back to top | Carnifex Tabs for Slit Wrist Savior. Lyrics for acoustic guitar and electric guitar. Tablatures and chords are parodies/interpretations of the original songs. You may use it for private study, scholarship, research or language learning purposes only