>
 >
Sadistic Embrace

Sadistic Embrace Guitar Tabs

Carnifex - Sadistic Embrace chords, tabs, tablatures, lyrics

Guitar lessons | Add/correct | Request | Top 50 tabs Artists:  A B C D E F G H I J K L M N O P Q R S T U V W X Y Z 0-9

Sadistic Embrace Guitar Tabs – Carnifex

CD, Sheet music, Poster

Do you like Sadistic Embrace? Share with your friends now
Tabs

Tuning: Drop A (A-E-A-D-F#-B)

 Key
 _________________________
| h = hammer on           |
| p = pull off            |
| ~ = let ring            |
| . = staccato            |
| _ = silence string      |
| pm* = palm mute         |
| * = pinch harmonic      |
| " = trem pick           |
|_________________________|



Intro
|-------------------------------------------------|
|-------------------------------------------------|
|-------------------------------------------------|
|-------------------------------------------------|
|-00000_----00000_----0000000000000_----00000_----|
|-00000_----00000_----0000000000000_----00000_----|
pm*****     *****     *************     *****


Riff 1                       
|-----------------------------------------------------------------|
|-----------------------------------------------------------------|
|-----------------------------------------------------------------|
|-----------------------------------------------------------------|
|-----8---5-------8---5---8p7-4h5-----8---5-------8---5---8p7-4h5-|
|-000---0---000-0---0---0---------000---0---000-0---0---0---------|
pm***   *   *** *   *   *         ***   *   *** *   *   *

|----------------------------------------------|
|----------------------------------------------|
|----------------------------------------------|
|----------------------------------------------|
|----8"-10"-8"-7"---5"-------------------------|
|-8"---------------------0"-7"-8"-7"-5"---4"---|

(repeat Riff 1)



Riff 2                                    (x4)|
|---------------------------------------------|
|---------------------------------------------|
|---------------------------------------------|
|------------------------------------5"-------|
|------------------------------4"----------2"-| (note: harmony on second two 
|-2"---5"-4"-2"---1"---2"---5"----4"----1"----|   times is just 3 frets up)


Riff 3
 (gtr. I)
|---------------------------------------------------------------------------|
|---------------------------------------------------------------------------|
|------------------------------------*--------------------------------------|
|------------------------------------3b-------------------------------------|
|-0-1-2-0-2"-1"-------0-1-2-0-2-3-2-----0-1-2-0-2"-1"-------0-1-2-0-2-3-2-1-|
|-0-1-2-0-------5"-4"-0-1-2-0-3-4-3-----0-1-2-0-------5"-4"-0-1-2-0-3-4-3-2-|
pm* * * *             * * * * * * *     * * * *             * * * * * * * *

 (gtr. II)
|---------------------------------------------------------------------------|
|---------------------------------------------------------------------------|
|------------------------------------*--------------------------------------|
|------------------------------------3b-------------------------------------|
|-0-1-2-0-5"-4"-1"-0"-0-1-2-0-2-3-2-----0-1-2-0-5"-4"-1"-0"-0-1-2-0-2-3-2-1-|
|-0-1-2-0-------------0-1-2-0-3-4-3-----0-1-2-0-------------0-1-2-0-3-4-3-2-|
pm* * * *             * * * * * * *     * * * *             * * * * * * * *


(repeat)

last ending (both gtrs)
|-------------------------|
|-------------------------|
|-------------------------|
|-------------------------|
|-3-4-3-2-2-3-2-1-1-2-1-0-|
|-4-5-4-3-3-4-3-2-2-3-2-1-|
pm* * * * * * * * * * * *


Breakdown
|------------------------------------------------------|
|------------------------------------------------------|
|------------------------------------------------------|
|-----.----.-.--------.--.------.----.-.------.--.--.--|
|-00000---00-0--------0-00--00000---00-0------0-00-00--|
|-00000---00-0--------0-00--00000---00-0------0-00-00--|
pm*****   ** *        * **  *****   ** *      * ** **

|------------------------------------------------------|
|------------------------------------------------------|
|------------------------------------------------------|
|-----.----.-.--------.--.------.----.-.---------------|
|-00000---00-0--------0-00--00000---00-0----(rest)-----|
|-00000---00-0--------0-00--00000---00-0---------------|
pm*****   ** *        * **  *****   ** *      



--> Riff 1 (x2)



Riff 4
|-----------------------------------|
|-----------------------------------|
|-----------------------------------|
|--------------------------7--------|
|---------7------------7-----10-8-7-|
|-0-0-8-0---10-8-7-7-7---7----------|
pm* *   *            *   *          

|--------------------------------------------|
|--------------------------------------------|
|--------------------------------------------|
|---------8---------------------8h12p8-------|
|-----8-----12-10-8-------10-----------12-10-|
|-8-8---8-----------10-10----10--------------|
pm* *   *           *  *     *

(repeat)


|---------------------------------------------------------------------------|
|---------------------------------------------------------------------------|
|---------------------------------------------------------------------------|
|--------------------------7----------------8----7-------------8h12p8-------|
|---------7------7-~---7-----10-8-8-~---8-----10---8------10----------12-10-|
|-0-0-8-0---10-8-7-~-7---7--------8-~-8---8----------10-10--10--------------|
pm* *   *            *   *            *   *          *  *   *

(repeat)

last ending:
(gtr. I)
|-----------------------------------------|
|-----------------------------------------|
|-----------------------------------------|
|-5h8p5-----5h8p5-----5h8p5-----5h8p5-----|
|-------8-7-------8-7-------8-7-------8-7-|
|-----------------------------------------|

(gtr. II)
|-----------------------------------------------------|
|-----------------------------------------------------|
|-----------------------------------------------------|
|-8h12p8-------8h12p8-------8h12p8-------8h12p8-------|
|--------12-10--------12-10--------12-10--------12-10-|
|-----------------------------------------------------|



--> Riff 3 (gets cut short, listen for it)



Outro                              (x4)|
|--------------------------------------|
|--------------------------------------|
|--------------------------------------|
|--------------------------------------|
|-00000-~-00-~-0-~-~-~-5-4-3-4-2-3-2-1-|
|-00000-~-00-~-0-~-~-~-5-4-3-4-2-3-2-1-|
pm*****   **   *       * * * * * * * *

                                (x3)|
|-----------------------------------|------------------------------------|
|-----------------------------------|------------------------------------|
|-----------------------------------|------------------------------------|
|-----.----.---.--------------------|-----.----.---.---------------------|
|-00000---00---0----5-4-3-4-2-3-2-1-|-00000---00---0---------------------|
|-11111---11---1----5-4-3-4-2-3-2-1-|-11111---11---1----5-4-3-4-2-3-2-1_-|
pm*****   **   *    * * * * * * * *   *****   **   *



So that's it. Not too hard to play with some practice, but still really
fun just the same. Anyways, rate/comment/enjoy!





Comments


Popular Carnifex tabs & chords
Dead Against The Gate Tabs
Dead But Dreaming Tabs
Genocide Initiative Tabs
In Coalesce With Filth And Faith 1 Tabs
Lie To My Face 1 Tabs
Lie To My Face 2 Tabs
Lie To My Face Intro Tabs
Names Mean Nothing Tabs
Slit Wrist Savior Tabs
To My Dead And Dark Dreams Tabs


Song lyrics



↑ Back to top | Tablatures and chords are parodies/interpretations of the original songs. You may use it for private study, scholarship, research or language learning purposes only
© 2014 AZChords.com Contact us | Privacy policy | DMCA | Add/correct tabs | Request tabs | Top 50 tabs