>
 >
Love Lies In Ashes

Love Lies In Ashes Guitar Tabs

Carnifex - Love Lies In Ashes chords, tabs, tablatures, lyrics

Guitar lessons | Add/correct | Request | Top 50 tabs Artists:  A B C D E F G H I J K L M N O P Q R S T U V W X Y Z 0-9

Love Lies In Ashes Guitar Tabs – Carnifex

CD, Sheet music, Poster

Do you like Love Lies In Ashes? Share with your friends now
Tabs
                               LOVE LIES IN ASHES
                             As recorded by Carnifex
                     (From the 2008 Album DEAD IN YOUR ARMS)

Music by Carnifex

Gtr I (A E A D Gb B) - 'Right'
Gtr II (A E A D Gb B) - 'Left'
Gtr III (A E A D Gb B) - 'Breakdown extra'
Gtr IV (A E A D Gb B) - 'Breakdown extra'
Gtr V (A E A D Gb B) - 'Breakdown extra'
Gtr VI (A E A D Gb B) - 'Breakdown extra'

 Intro
  Deathcore Q=228
  D5  N.C.        D5    N.C.        D5  N.C.
 4/4
  Gtr I
  PM-------------------------------------------
  E E H           E E   H           E E Q
|---------------------|-----------------------|
|---------------------|-----------------------|
|---------------------|-----------------------|
|---------------------|-----------------------|
|-0-0-------------0-0-|-------------0-0-------|
|-0-0-------------0-0-|-------------0-0-------|
|
| Gtr II
| PM|             PM|               PM|
|     |----6----|       |----3----|     |-3-|
| E E E E E E E E E E   E E E E E E E E E E E
|---------------------|-----------------------|
|---------------------|-----------------------|
|---------------------|-----------------------|
|---------------------|-----------------------|
|-----5h8p5-4h7p4-----|-5h8p5-4h7p4-----5h8p5-|
|-0-0-------------0-0-|-------------0-0-------|


  D5  N.C.        D5    N.C.
 -------------------|
                        |----6-----| |-----6-----|
  E E H           E E   E E E E  E E E  E E E  E E
|---------------------|------------------------------|
|---------------------|------------------------------|
|---------------------|------------------------------|
|---------------------|------------------------------|
|-0-0-------------0-0-|-5h8p5-7h10p7-----------------|
|-0-0-------------0-0-|--------------8h11p8-7h10p7---|
|
| PM|             PM|
|     |----6----|       |----6-----| |-----6-----|
| E E E E E E E E E E   E E E E  E E E  E E E  E E
|---------------------|------------------------------|
|---------------------|------------------------------|
|---------------------|------------------------------|
|---------------------|------------------------------|
|-----5h8p5-4h7p4-----|-5h8p5-4h=7p4-----------------|
|-0-0-------------0-0-|--------------5h=8p5-4h=7p4---|


   "Behind her smile lies..."
    N.C.
    PM|             PM|               PM|
        |----6----|       |----6----|     |-3-|
    E E E E E E E E E E   E E E E E E E E E E E
||----------------------|-----------------------|
||o---------------------|-----------------------|
||----------------------|-----------------------|
||----------------------|-----------------------|
||o-----5h8p5-4h7p4-----|-5h8p5-4h7p4-----5h8p5-|
||--0-0-------------0-0-|-------------0-0-------|
|
|   PM|             PM|               PM|
|       |----6----|       |----6----|     |-3-|
|   E E E E E E E E E E   E E E E E E E E E E E
||----------------------|-----------------------|
||o---------------------|-----------------------|
||----------------------|-----------------------|
||----------------------|-----------------------|
||o-----5h8p5-4h7p4-----|-5h8p5-4h7p4-----5h8p5-|
||--0-0-------------0-0-|-------------0-0-------|


  PM|             PM|
      |----6----|       |----6----| |----6----|
  E E E E E E E E E E   E E E E E E E E E E E E
|---------------------|-----------------------------||
|---------------------|----------------------------o||
|---------------------|-----------------------------||
|---------------------|-----------------------------||
|-----5h8p5-4h7p4-----|-5h8p5-4h7p4----------------o||
|-0-0-------------0-0-|-------------5h8p5-4h7p4-----||
|
| PM|             PM|
|     |----6----|       |----6----| |----6----|
| E E E E E E E E E E   E E E E E E E E E E E E
|---------------------|-----------------------------||
|---------------------|----------------------------o||
|---------------------|-----------------------------||
|---------------------|-----------------------------||
|-----5h8p5-4h7p4-----|-5h8p5-4h7p4----------------o||
|-0-0-------------0-0-|-------------5h8p5-4h7p4-----||


  N.C.
  PM|             PM|               PM|
      |----6----|       |----6----|
  E E E E E E E E E E   E E E E E E E E E E
|---------------------|---------------------|
|---------------------|---------------------|
|---------------------|---------------------|
|---------------------|---------------------|
|-----5h8p5-4h7p4-----|-5h8p5-4h7p4-----5h8-|
|-0-0-------------0-0-|-------------0-0-----|
|
| PM|             PM|               PM|
|     |----6----|       |----6----|
| E E E E E E E E E E   E E E E E E E E E E
|---------------------|---------------------|
|---------------------|---------------------|
|---------------------|---------------------|
|---------------------|---------------------|
|-----5h8p5-4h7p4-----|-5h8p5-4h7p4-----5h8-|
|-0-0-------------0-0-|-------------0-0-----|


  PM|     PM----|
  E E E E E E E E   S S S S S S S S S S S S S S S S
|-----------------|------------------------------------|
|-----------------|------------------------------------|
|-----------------|------------------------------------|
|-----------------|------------------------------------|
|-----4h7---------|-1-1-1-1-0-0-0-0--------------------|
|-0-0-----0-0-0-0-|-----------------3-3-3-3-2-2-2-2----|
|
| PM|     PM----|
| E E E E E E E E   S S S S S S S S S S S S S S S S
|-----------------|------------------------------------|
|-----------------|------------------------------------|
|-----------------|------------------------------------|
|-----------------|------------------------------------|
|-----4h7---------|-1-1-1-1-0-0-0-0--------------------|
|-0-0-----0-0-0-0-|-----------------3-3-3-3-2-2-2-2----|


   "Broken memories..."
    N.C.
    S S S S S S S S S S S S S S S S   S S S S S S S S S S S S S S S S
||----------------------------------|---------------------------------|
||o---------------------------------|---------------------------------|
||----------------------------------|---------------------------------|
||----------------------------------|---------------------------------|
||o---------1-1-1-1-0-0-0-0---------|-1-1-1-1-0-0-0-0-----------------|
||--0-0-0-0-----------------0-0-0-0-|-----------------3-3-3-3-2-2-2-2-|
|
|   S S S S S S S S S S S S S S S S   S S S S S S S S S S S S S S S S
||----------------------------------|---------------------------------|
||o---------------------------------|---------------------------------|
||----------------------------------|---------------------------------|
||----------------------------------|---------------------------------|
||o---------1-1-1-1-0-0-0-0---------|-1-1-1-1-0-0-0-0-----------------|
||--0-0-0-0-----------------0-0-0-0-|-----------------3-3-3-3-2-2-2-2-|


  N.C.                              C/GB/FBb/A/Eb
                                    PM-------|
  S S S S S S S S S S S S S S S S   Q  Q  Q  Q
|---------------------------------|-------------|
|---------------------------------|-------------|
|---------------------------------|-------------|
|---------------------------------|-------------|
|---------1-1-1-1-0-0-0-0---------|-3--2--1--0--|
|-0-0-0-0-----------------0-0-0-0-|-4--3--2--1--|
|
|                                   PM-------|
| S S S S S S S S S S S S S S S S   Q  Q  Q  Q
|---------------------------------|-------------|
|---------------------------------|-------------|
|---------------------------------|-------------|
|---------------------------------|-------------|
|---------1-1-1-1-0-0-0-0---------|-3--2--1--0--|
|-0-0-0-0-----------------0-0-0-0-|-4--3--2--1--|


  N.C.
  S S S S S S S S S S S S S S S S   S S S S S S S S S S S S S S S S
|---------------------------------|---------------------------------|
|---------------------------------|---------------------------------|
|---------------------------------|---------------------------------|
|---------------------------------|---------------------------------|
|---------1-1-1-1-0-0-0-0---------|-1-1-1-1-0-0-0-0-----------------|
|-0-0-0-0-----------------0-0-0-0-|-----------------3-3-3-3-2-2-2-2-|
|
| S S S S S S S S S S S S S S S S   S S S S S S S S S S S S S S S S
|---------------------------------|---------------------------------|
|---------------------------------|---------------------------------|
|---------------------------------|---------------------------------|
|---------------------------------|---------------------------------|
|---------1-1-1-1-0-0-0-0---------|-1-1-1-1-0-0-0-0-----------------|
|-0-0-0-0-----------------0-0-0-0-|-----------------3-3-3-3-2-2-2-2-|


  N.C.
  S S S S S S S S S S S S S S S S   E E E E E E E E
|---------------------------------|------------------||
|---------------------------------|-----------------o||
|---------------------------------|------------------||
|---------------------------------|-------------3h6--||
|---------1-1-1-1-0-0-0-0---------|-----1h4-2h5-----o||
|-0-0-0-0-----------------0-0-0-0-|-2h5--------------||
|
| S S S S S S S S S S S S S S S S   E E E E E E E E
|---------------------------------|------------------||
|---------------------------------|-----------------o||
|---------------------------------|------------------||
|---------------------------------|-------------3h6--||
|---------1-1-1-1-0-0-0-0---------|-----1h4-2h5-----o||
|-0-0-0-0-----------------0-0-0-0-|-2h5--------------||


  N.C.                                                              D5
                                                                    PM
  E  E E  E E  E  E  E   E  E E  E E  E E  E   E  E E E E  E E  E   Q  Q  H
|----------------------|---------------------|--------------------|------------|
|----------------------|---------------------|--------------------|------------|
|----------------------|---------------------|--------------------|------------|
|-----------------5h=8-|----------------4h=7-|---------------3h=6-|------------|
|------3h=6-4h=7-------|------2h=5-3h=6------|------1h4-2h=5------|-0----------|
|-4h=7-----------------|-3h=6----------------|-2h=5---------------|-0----------|
|
|                                                                   PM
| E  E E  E E  E  E  E   E  E E  E E  E E  E   E  E E E E  E E  E   Q  Q  H
|----------------------|---------------------|--------------------|------------|
|----------------------|---------------------|--------------------|------------|
|----------------------|---------------------|--------------------|------------|
|----------------10h13-|----------------9h10-|---------------8h11-|------------|
|------8h11-9h12-------|------7h10-8h11------|------6h9-7h10------|-0----------|
|-9h12-----------------|-8h11----------------|-7h10---------------|-0----------|


 Will Ferrels part
  Wx4
|--------|
|--------|
|--------|
|--------|
|--------|
|--------|
|
| Wx4
|--------|
|--------|
|--------|
|--------|
|--------|
|--------|


   "Like a rose, fallen to..."
    A little slower Q=218
    C/GB/FBb/A/Eb C/GB/FBb/A/Eb C/GB/FBb/A/Eb C/GB/FBb/A/Eb
    PM-------------------------------------------------|
    Q  Q  Q  Q    Q  Q  Q  Q    Q  Q  Q  Q    Q  Q  Q  Q   4x
||--------------|-------------|-------------|--------------||
||o-------------|-------------|-------------|-------------o||
||--------------|-------------|-------------|--------------||
||--------------|-------------|-------------|--------------||
||o-3--2--1--0--|-3--2--1--0--|-3--2--1--0--|-3--2--1--0--o||
||--4--3--2--1--|-4--3--2--1--|-4--3--2--1--|-4--3--2--1---||
|
|   PM-------------------------------------------------|
|   Q  Q  Q  Q    Q  Q  Q  Q    Q  Q  Q  Q    Q  Q  Q  Q   4x
||--------------|-------------|-------------|--------------||
||o-------------|-------------|-------------|-------------o||
||--------------|-------------|-------------|--------------||
||--------------|-------------|-------------|--------------||
||o-3--2--1--0--|-3--2--1--0--|-3--2--1--0--|-3--2--1--0--o||
||--4--3--2--1--|-4--3--2--1--|-4--3--2--1--|-4--3--2--1---||


   "The whore digs her..."
    D5                                                C/Gb
    PM----------------------------------------------------------|
    E E E E E E E E   E H..         E E E E E E E E   Q.   Q.   Q
||------------------|-------------|-----------------|--------------|
||o-----------------|-------------|-----------------|--------------|
||------------------|-------------|-----------------|--------------|
||------------------|-------------|-----------------|--------------|
||o-0-0-0-0-0-0-0-0-|-0-----------|-0-0-0-0-0-0-0-0-|-3----3----3--|
||--0-0-0-0-0-0-0-0-|-0-----------|-0-0-0-0-0-0-0-0-|-4----4----4--|
|
|   PM----------------------------------------------------------|
|   E E E E E E E E   E H..         E E E E E E E E   Q.   Q.   Q
||------------------|-------------|-----------------|--------------|
||o-----------------|-------------|-----------------|--------------|
||------------------|-------------|-----------------|--------------|
||------------------|-------------|-----------------|--------------|
||o-0-0-0-0-0-0-0-0-|-0-----------|-0-0-0-0-0-0-0-0-|-3----3----3--|
||--0-0-0-0-0-0-0-0-|-0-----------|-0-0-0-0-0-0-0-0-|-4----4----4--|


  D5                                               C/Gb
  PM---------------------------------------------------------|
  E E E E E E E E   E H..         Q  E E E E E E   Q.   Q.   Q
|-----------------|-------------|----------------|----------------||
|-----------------|-------------|----------------|---------------o||
|-----------------|-------------|----------------|----------------||
|-----------------|-------------|----------------|----------------||
|-0-0-0-0-0-0-0-0-|-0-----------|----0-0-0-0-0-0-|-2----2----2---o||
|-0-0-0-0-0-0-0-0-|-0-----------|----0-0-0-0-0-0-|-3----3----3----||
|
| PM---------------------------------------------------------|
| E E E E E E E E   E H..         Q  E E E E E E   Q.   Q.   Q
|-----------------|-------------|----------------|----------------||
|-----------------|-------------|----------------|---------------o||
|-----------------|-------------|----------------|----------------||
|-----------------|-------------|----------------|----------------||
|-0-0-0-0-0-0-0-0-|-0-----------|----0-0-0-0-0-0-|-3----3----3---o||
|-0-0-0-0-0-0-0-0-|-0-----------|----0-0-0-0-0-0-|-4----4----4----||


   Interlude
    A Tempo Q=228
    N.C.
    PM------------------------------------------------------|
    E E E E E E E E   E E E E E E E E   E E E E E E E E   E E Q  Q  Q
||------------------|-----------------|-----------------|---------------||
||o-----------------|-----------------|-----------------|--------------o||
||------------------|-----------------|-----------------|---------------||
||------------------|-----------------|-----------------|---------------||
||o-----------------|-----------------|-----------------|-----5--4--1--o||
||--0-0---0-0-0-0-0-|-0-0---0-0-0-0-0-|-0-0---0-0-0-0-0-|-0-0-----------||
|
|   PM------------------------------------------------------|
|   E E E E E E E E   E E E E E E E E   E E E E E E E E   E E Q  Q  Q
||------------------|-----------------|-----------------|---------------||
||o-----------------|-----------------|-----------------|--------------o||
||------------------|-----------------|-----------------|---------------||
||------------------|-----------------|-----------------|---------------||
||o-----------------|-----------------|-----------------|-----5--4--1--o||
||--0-0---0-0-0-0-0-|-0-0---0-0-0-0-0-|-0-0---0-0-0-0-0-|-0-0-----------||


   "You built a heart from..."
    D5                                                     N.C.
    PM---------------------------------------------------|
    E Q.   E E E E   E Q.   E E E E   E Q.   E E E E   E E Q  Q  Q
||-----------------|----------------|----------------|---------------||
||o----------------|----------------|----------------|--------------o||
||-----------------|----------------|----------------|---------------||
||-----------------|----------------|----------------|---------------||
||o-0-0----0-0-0-0-|-0-0----0-0-0-0-|-0-0----0-0-0-0-|-0-0-5--4--1--o||
||--0-0----0-0-0-0-|-0-0----0-0-0-0-|-0-0----0-0-0-0-|-0-0-----------||
|
|   PM---------------------------------------------------|
|   E Q.   E E E E   E Q.   E E E E   E Q.   E E E E   E E Q  Q  Q
||-----------------|----------------|----------------|---------------||
||o----------------|----------------|----------------|--------------o||
||-----------------|----------------|----------------|---------------||
||-----------------|----------------|----------------|---------------||
||o-0-0----0-0-0-0-|-0-0----0-0-0-0-|-0-0----0-0-0-0-|-0-0-5--4--1--o||
||--0-0----0-0-0-0-|-0-0----0-0-0-0-|-0-0----0-0-0-0-|-0-0-----------||


 Interlude II
  N.C.
  S S S S S S S S S S S S S S S S   S S S S S S S S S S S S S S S S
|---------------------------------|---------------------------------|
|---------------------------------|---------------------------------|
|---------------------------------|---------------------------------|
|-----------------8-8-8-8-8-8-8-8-|-----------------8-8-8-8-8-8-8-8-|
|-5-5-5-5-5-5-5-5-----------------|-3-3-3-3-3-3-3-3-----------------|
|---------------------------------|---------------------------------|
|
| S S S S S S S S S S S S S S S S   S S S S S S S S S S S S S S S S
|---------------------------------|---------------------------------|
|---------------------------------|---------------------------------|
|---------------------------------|---------------------------------|
|-----------------8-8-8-8-8-8-8-8-|-----------------8-8-8-8-8-8-8-8-|
|-5-5-5-5-5-5-5-5-----------------|-3-3-3-3-3-3-3-3-----------------|
|---------------------------------|---------------------------------|


  N.C.
  S S S S S S S S S S S S S S S S   S S S S S S S S S S S S S S S S
|---------------------------------|---------------------------------|
|---------------------------------|---------------------------------|
|---------------------------------|---------------------------------|
|-5-5-5-5-5-5-5-5-5-5-5-5-5-5-5-5-|-7-7-7-7-7-7-7-7-----------------|
|---------------------------------|-----------------8-8-8-8-7-7-7-7-|
|---------------------------------|---------------------------------|
|
| S S S S S S S S S S S S S S S S   S S S S S S S S S S S S S S S S
|---------------------------------|---------------------------------|
|---------------------------------|---------------------------------|
|---------------------------------|---------------------------------|
|-5-5-5-5-5-5-5-5-5-5-5-5-5-5-5-5-|-7-7-7-7-7-7-7-7-----------------|
|---------------------------------|-----------------8-8-8-8-7-7-7-7-|
|---------------------------------|---------------------------------|


  N.C.
  S S S S S S S S S S S S S S S S   S S S S S S S S S S S S S S S S
|---------------------------------|---------------------------------|
|---------------------------------|---------------------------------|
|---------------------------------|---------------------------------|
|-----------------8-8-8-8-8-8-8-8-|-----------------8-8-8-8-8-8-8-8-|
|-5-5-5-5-5-5-5-5-----------------|-3-3-3-3-3-3-3-3-----------------|
|---------------------------------|---------------------------------|
|
| S S S S S S S S S S S S S S S S   S S S S S S S S S S S S S S S S
|---------------------------------|---------------------------------|
|---------------------------------|---------------------------------|
|---------------------------------|---------------------------------|
|-----------------8-8-8-8-8-8-8-8-|-----------------8-8-8-8-8-8-8-8-|
|-5-5-5-5-5-5-5-5-----------------|-3-3-3-3-3-3-3-3-----------------|
|---------------------------------|---------------------------------|


  N.C.
  S S S S S S S S S S S S S S S S   S S S S S S S S S S  S  S  S  S  S  S
|---------------------------------|---------------------------------------|
|---------------------------------|---------------------------------------|
|---------------------------------|---------------------------------------|
|-5-5-5-5-5-5-5-5-5-5-5-5-5-5-5-5-|-8-8-8-8-8-8-8-8-7-7--7--7--5--5--5--5-|
|---------------------------------|---------------------------------------|
|---------------------------------|---------------------------------------|
|
| S S S S S S S S S S S S S S S S   Q       Q       E   +E    +E    +E
|---------------------------------|---------------------------------------|
|---------------------------------|---------------------------------------|
|---------------------------------|---------------------------------------|
|-5-5-5-5-5-5-5-5-5-5-5-5-5-5-5-5-|-2-------3-------5---(5)---(5)---(5)---|
|---------------------------------|---------------------------------------|
|---------------------------------|---------------------------------------|


    N.C.
    S S S S S S S S S S S S S S S S   S S S S S S S S S S S S S S S S
||----------------------------------|---------------------------------|
||o---------------------------------|---------------------------------|
||----------------------------------|---------------------------------|
||----------------------------------|-5-5-5-5-------------------------|
||o-5-5-5-5-7-7-7-7-8-8-8-8-5-5-5-5-|---------8-8-8-8-7-7-7-7-8-8-8-8-|
||----------------------------------|---------------------------------|
|
|   S S S S S S S S S S S S S S S S   S S S S S S S S S S S S S S S S
||----------------------------------|---------------------------------|
||o---------------------------------|---------------------------------|
||----------------------------------|---------------------------------|
||----------------------------------|-5-5-5-5-------------------------|
||o-5-5-5-5-7-7-7-7-8-8-8-8-5-5-5-5-|---------8-8-8-8-7-7-7-7-8-8-8-8-|
||----------------------------------|---------------------------------|


  N.C.
  S S S S S S S S S S S S S S S S   S S S S S S S S S S S S S S S S
|---------------------------------|----------------------------------||
|---------------------------------|---------------------------------o||
|---------------------------------|----------------------------------||
|-8-8-8-8-7-7-7-7-5-5-5-5-7-7-7-7-|-----------------5-5-5-5----------||
|---------------------------------|-8-8-8-8-7-7-7-7---------8-8-8-8-o||
|---------------------------------|----------------------------------||
|
| S S S S S S S S S S S S S S S S   S S S S S S S S S S S S S S S S
|---------------------------------|----------------------------------||
|---------------------------------|---------------------------------o||
|---------------------------------|----------------------------------||
|-8-8-8-8-7-7-7-7-5-5-5-5-7-7-7-7-|-----------------5-5-5-5----------||
|---------------------------------|-8-8-8-8-7-7-7-7---------8-8-8-8-o||
|---------------------------------|----------------------------------||


    N.C.
    S S S S  S  S  S  S  S  S  S  S S S S S
||------------------------------------------|
||o-----------------------------------------|
||------------------------------------------|
||------------------------------------------|
||o-5-5-5-5--7--7--7--7--8--8--8--8-5-5-5-5-|
||------------------------------------------|
|
|   S S S S  S  S  S  S  S  S  S  S S S S S
||------------------------------------------|
||o-----------------------------------------|
||------------------------------------------|
||------------------------------------------|
||o-8-8-8-8-10-10-10-10-12-12-12-12-8-8-8-8-|
||------------------------------------------|


  S S S S  S  S  S  S  S  S  S  S  S  S  S  S
|---------------------------------------------|
|---------------------------------------------|
|---------------------------------------------|
|-5-5-5-5-------------------------------------|
|----------8--8--8--8--7--7--7--7--8--8--8--8-|
|---------------------------------------------|
|
| S S S S  S  S  S  S  S  S  S  S  S  S  S  S
|---------------------------------------------|
|---------------------------------------------|
|---------------------------------------------|
|-8-8-8-8-------------------------------------|
|---------12-12-12-12-10-10-10-10-12-12-12-12-|
|---------------------------------------------|


  N.C.
   S  S  S  S  S  S  S  S S S S S  S  S  S  S
|---------------------------------------------|
|---------------------------------------------|
|---------------------------------------------|
|--8--8--8--8--7--7--7--7-5-5-5-5--7--7--7--7-|
|---------------------------------------------|
|---------------------------------------------|
|
|  S  S  S  S  S  S  S  S S S S S  S  S  S  S
|---------------------------------------------|
|---------------------------------------------|
|---------------------------------------------|
|-12-12-12-12-10-10-10-10-8-8-8-8-10-10-10-10-|
|---------------------------------------------|
|---------------------------------------------|


   S  S  S  S  S  S  S  S S S S S  S  S  S  S
|----------------------------------------------||
|---------------------------------------------o||
|----------------------------------------------||
|-------------------------5-5-5-5--------------||
|--8--8--8--8--7--7--7--7----------8--8--8--8-o||
|----------------------------------------------||
|
|  S  S  S  S  S  S  S  S S S S S  S  S  S  S
|----------------------------------------------||
|---------------------------------------------o||
|----------------------------------------------||
|-------------------------8-8-8-8--------------||
|-12-12-12-12-10-10-10-10---------12-12-12-12-o||
|----------------------------------------------||


 "My lovers fall at last..."
  N.C.
  PM-------------------------------------------------------------------|
  S S S S E Q.   S S S S   E Q.   E E E E   S S S S E Q.   S S S S   E H..
|------------------------|----------------|------------------------|----------|
|------------------------|----------------|------------------------|----------|
|------------------------|----------------|------------------------|----------|
|------------------------|----------------|------------------------|----------|
|-0-0-0-0-0------0-0-0-0-|-0------0-0-0-0-|-0-0-0-0-0------0-0-0-0-|-0--------|
|-0-0-0-0-0------0-0-0-0-|-0------0-0-0-0-|-0-0-0-0-0------0-0-0-0-|-0--------|
|
| PM-------------------------------------------------------------------|
| S S S S E Q.   S S S S   E Q.   E E E E   S S S S E Q.   S S S S   E H..
|------------------------|----------------|------------------------|----------|
|------------------------|----------------|------------------------|----------|
|------------------------|----------------|------------------------|----------|
|------------------------|----------------|------------------------|----------|
|-0-0-0-0-0------0-0-0-0-|-0------0-0-0-0-|-0-0-0-0-0------0-0-0-0-|-0--------|
|-0-0-0-0-0------0-0-0-0-|-0------0-0-0-0-|-0-0-0-0-0------0-0-0-0-|-0--------|


  N.C.
  PM---------------------------------------
  S S S S E Q.   S S S S   E Q.   E E E E
|------------------------|----------------|
|------------------------|----------------|
|------------------------|----------------|
|------------------------|----------------|
|-0-0-0-0-0------0-0-0-0-|-0------0-0-0-0-|
|-0-0-0-0-0------0-0-0-0-|-0------0-0-0-0-|
|
| PM---------------------------------------
| S S S S E Q.   S S S S   E Q.   E E E E
|------------------------|----------------|
|------------------------|----------------|
|------------------------|----------------|
|------------------------|----------------|
|-0-0-0-0-0------0-0-0-0-|-0------0-0-0-0-|
|-0-0-0-0-0------0-0-0-0-|-0------0-0-0-0-|


 --------------------------------------|
  S S S S E Q.   S S S S   E. E. E. E. Q
|------------------------|----------------|
|------------------------|----------------|
|------------------------|----------------|
|------------------------|----------------|
|-0-0-0-0-0------0-0-0-0-|-0--0--0--0-----|
|-0-0-0-0-0------0-0-0-0-|-0--0--0--0-----|
|
|--------------------------------------|
| S S S S E Q.   S S S S   E. E. E. E. Q
|------------------------|----------------|
|------------------------|----------------|
|------------------------|----------------|
|------------------------|----------------|
|-0-0-0-0-0------0-0-0-0-|-0--0--0--0-----|
|-0-0-0-0-0------0-0-0-0-|-0--0--0--0-----|


  A little slower Q=218
  N.C.
  PM-------------------------------------------------------------------|
  S S S S E Q.   S S S S   E Q.   E E E E   S S S S E Q.   S S S S   E H..
|------------------------|----------------|------------------------|----------|
|------------------------|----------------|------------------------|----------|
|------------------------|----------------|------------------------|----------|
|------------------------|----------------|------------------------|----------|
|-0-0-0-0-0------0-0-0-0-|-0------0-0-0-0-|-0-0-0-0-0------0-0-0-0-|-0--------|
|-0-0-0-0-0------0-0-0-0-|-0------0-0-0-0-|-0-0-0-0-0------0-0-0-0-|-0--------|
|
| PM-------------------------------------------------------------------|
| S S S S E Q.   S S S S   E Q.   E E E E   S S S S E Q.   S S S S   E H..
|------------------------|----------------|------------------------|----------|
|------------------------|----------------|------------------------|----------|
|------------------------|----------------|------------------------|----------|
|------------------------|----------------|------------------------|----------|
|-0-0-0-0-0------0-0-0-0-|-0------0-0-0-0-|-0-0-0-0-0------0-0-0-0-|-0--------|
|-0-0-0-0-0------0-0-0-0-|-0------0-0-0-0-|-0-0-0-0-0------0-0-0-0-|-0--------|


  D5                                                                 A/Eb
  PM----------------------------------------------------------------------|
  S S S S E Q.   S S S S   E Q.   E E E E   S S S S E Q.   S S S S   H    H
|------------------------|----------------|------------------------|-----------|
|------------------------|----------------|------------------------|-----------|
|------------------------|----------------|------------------------|-----------|
|------------------------|----------------|------------------------|-----------|
|-0-0-0-0-0------0-0-0-0-|-0------0-0-0-0-|-0-0-0-0-0------0-0-0-0-|-0----0----|
|-0-0-0-0-0------0-0-0-0-|-0------0-0-0-0-|-0-0-0-0-0------0-0-0-0-|-1----1----|
|
| PM----------------------------------------------------------------------|
| S S S S E Q.   S S S S   E Q.   E E E E   S S S S E Q.   S S S S   H    H
|------------------------|----------------|------------------------|-----------|
|------------------------|----------------|------------------------|-----------|
|------------------------|----------------|------------------------|-----------|
|------------------------|----------------|------------------------|-----------|
|-0-0-0-0-0------0-0-0-0-|-0------0-0-0-0-|-0-0-0-0-0------0-0-0-0-|-0----0----|
|-0-0-0-0-0------0-0-0-0-|-0------0-0-0-0-|-0-0-0-0-0------0-0-0-0-|-1----1----|


   BREE
    A/Eb
    PM---------------------------------------------------|
    |-3-|      |-3-|                  |-3-|      |-3-|
    E E E H    E E E   H    E E E E   E E E H    E E E   W     4x
||-------------------|--------------|------------------|-------||
||o------------------|--------------|------------------|------o||
||-------------------|--------------|------------------|-------||
||-------------------|--------------|------------------|-------||
||o-0-0-0-0----0-0-0-|-0----0-0-0-0-|-0-0-0-0----0-0-0-|-0----o||
||--1-1-1-1----1-1-1-|-1----1-1-1-1-|-1-1-1-1----1-1-1-|-1-----||
|
|   PM---------------------------------------------------|
|   |-3-|      |-3-|                  |-3-|      |-3-|
|   E E E H    E E E   H    E E E E   E E E H    E E E   W     4x
||-------------------|--------------|------------------|-------||
||o------------------|--------------|------------------|------o||
||-------------------|--------------|------------------|-------||
||-------------------|--------------|------------------|-------||
||o-0-0-0-0----0-0-0-|-0----0-0-0-0-|-0-0-0-0----0-0-0-|-0----o||
||--1-1-1-1----1-1-1-|-1----1-1-1-1-|-1-1-1-1----1-1-1-|-1-----||


 "Like a rose, fallen to..."
  D5 Eb5F5 D5   F5 Ab5E5 G5   D5 Eb5F5 D5   F5 Ab5E5 G5
  PM-------------------------------------------------|
  Q  Q  Q  Q    Q  Q  Q  Q    Q  Q  Q  Q    Q  Q  Q  Q
|-------------|-------------|-------------|--------------|
|-------------|-------------|-------------|--------------|
|-------------|-------------|-------------|--------------|
|-------------|-------------|-------------|--------------|
|-0--1--3--0--|-3--6--2--5--|-0--1--3--0--|-3--6--2--5---|
|-0--1--3--0--|-3--6--2--5--|-0--1--3--0--|-3--6--2--5---|
|
| PM-------------------------------------------------|
| Q  Q  Q  Q    Q  Q  Q  Q    Q  Q  Q  Q    Q  Q  Q  Q
|-------------|-------------|-------------|--------------|
|-------------|-------------|-------------|--------------|
|-------------|-------------|-------------|--------------|
|-------------|-------------|-------------|--------------|
|-0--1--3--0--|-3--6--2--5--|-0--1--3--0--|-3--6--2--5---|
|-0--1--3--0--|-3--6--2--5--|-0--1--3--0--|-3--6--2--5---|


  D5 Eb5F5 D5   F5 Ab5E5 G5   D5 Eb5G5 E5   F5 Ab5N.C.
  PM----------------------------------------------|
  Q  Q  Q  Q    Q  Q  Q  Q    Q  Q  Q  Q    Q  Q  H
|-------------|-------------|-------------|------------------|
|-------------|-------------|-------------|------------------|
|-------------|-------------|-------------|------------------|
|-------------|-------------|-------------|------------------|
|-0--1--3--0--|-3--6--2--5--|-0--1--3--0--|-3--6-------------|
|-0--1--3--0--|-3--6--2--5--|-0--1--3--0--|-3--6-------------|
|
| PM-------------------------------------------|
| Q  Q  Q  Q    Q  Q  Q  Q    Q  Q  Q  Q    Q  Q  H       a
|-------------|-------------|-------------|------------------|
|-------------|-------------|-------------|------------------|
|-------------|-------------|-------------|------------------|
|-------------|-------------|-------------|-------2b4----(2)-|
|-0--1--3--0--|-3--6--2--5--|-0--1--3--0--|-3--6-------------|
|-0--1--3--0--|-3--6--2--5--|-0--1--3--0--|-3--6-------------|


    D5 Eb5F5 D5   F5 Ab5E5 G5   D5 Eb5F5 D5   F5 Ab5E5 G5
    PM-------------------------------------------------|
    Q  Q  Q  Q    Q  Q  Q  Q    Q  Q  Q  Q    Q  Q  Q  Q
||--------------|-------------|-------------|--------------||
||o-------------|-------------|-------------|-------------o||
||--------------|-------------|-------------|--------------||
||--------------|-------------|-------------|--------------||
||o-0--1--3--0--|-3--6--2--5--|-0--1--3--0--|-3--6--2--5--o||
||--0--1--3--0--|-3--6--2--5--|-0--1--3--0--|-3--6--2--5---||
|
|   PM-------------------------------------------------|
|   Q  Q  Q  Q    Q  Q  Q  Q    Q  Q  Q  Q    Q  Q  Q  Q
||--------------|-------------|-------------|--------------||
||o-------------|-------------|-------------|-------------o||
||--------------|-------------|-------------|--------------||
||--------------|-------------|-------------|--------------||
||o-0--1--3--0--|-3--6--2--5--|-0--1--3--0--|-3--6--2--5--o||
||--0--1--3--0--|-3--6--2--5--|-0--1--3--0--|-3--6--2--5---||


   Trem. part
    A Tempo Q=228
    N.C.
    S S S S S S S S S S S S S S S S   S S S S S S S S S S S S S S S S
||----------------------------------|---------------------------------|
||o---------------------------------|---------------------------------|
||----------------------------------|---------------------------------|
||----------------------------------|-5-5-5-5-------------------------|
||o-5-5-5-5-7-7-7-7-8-8-8-8-5-5-5-5-|---------8-8-8-8-7-7-7-7-8-8-8-8-|
||----------------------------------|---------------------------------|
|
|   S S S S S S S S S S S S S S S S   S S S S S S S S S S S S S S S S
||----------------------------------|---------------------------------|
||o---------------------------------|---------------------------------|
||----------------------------------|---------------------------------|
||----------------------------------|-5-5-5-5-------------------------|
||o-5-5-5-5-7-7-7-7-8-8-8-8-5-5-5-5-|---------8-8-8-8-7-7-7-7-8-8-8-8-|
||----------------------------------|---------------------------------|


  N.C.
  S S S S S S S S S S S S S S S S   S S S S S S S S S S S S S S S S
|---------------------------------|----------------------------------||
|---------------------------------|---------------------------------o||
|---------------------------------|----------------------------------||
|-8-8-8-8-7-7-7-7-5-5-5-5-7-7-7-7-|-----------------5-5-5-5----------||
|---------------------------------|-8-8-8-8-7-7-7-7---------8-8-8-8-o||
|---------------------------------|----------------------------------||
|
| S S S S S S S S S S S S S S S S   S S S S S S S S S S S S S S S S
|---------------------------------|----------------------------------||
|---------------------------------|---------------------------------o||
|---------------------------------|----------------------------------||
|-8-8-8-8-7-7-7-7-5-5-5-5-7-7-7-7-|-----------------5-5-5-5----------||
|---------------------------------|-8-8-8-8-7-7-7-7---------8-8-8-8-o||
|---------------------------------|----------------------------------||


    N.C.
    S S S S  S  S  S  S  S  S  S  S S S S S
||------------------------------------------|
||o-----------------------------------------|
||------------------------------------------|
||------------------------------------------|
||o-5-5-5-5--7--7--7--7--8--8--8--8-5-5-5-5-|
||------------------------------------------|
|
|   S S S S  S  S  S  S  S  S  S  S S S S S
||------------------------------------------|
||o-----------------------------------------|
||------------------------------------------|
||------------------------------------------|
||o-8-8-8-8-10-10-10-10-12-12-12-12-8-8-8-8-|
||------------------------------------------|


  S S S S  S  S  S  S  S  S  S  S  S  S  S  S
|---------------------------------------------|
|---------------------------------------------|
|---------------------------------------------|
|-5-5-5-5-------------------------------------|
|----------8--8--8--8--7--7--7--7--8--8--8--8-|
|---------------------------------------------|
|
| S S S S  S  S  S  S  S  S  S  S  S  S  S  S
|---------------------------------------------|
|---------------------------------------------|
|---------------------------------------------|
|-8-8-8-8-------------------------------------|
|---------12-12-12-12-10-10-10-10-12-12-12-12-|
|---------------------------------------------|


  N.C.
   S  S  S  S  S  S  S  S S S S S  S  S  S  S
|---------------------------------------------|
|---------------------------------------------|
|---------------------------------------------|
|--8--8--8--8--7--7--7--7-5-5-5-5--7--7--7--7-|
|---------------------------------------------|
|---------------------------------------------|
|
|  S  S  S  S  S  S  S  S S S S S  S  S  S  S
|---------------------------------------------|
|---------------------------------------------|
|---------------------------------------------|
|-12-12-12-12-10-10-10-10-8-8-8-8-10-10-10-10-|
|---------------------------------------------|
|---------------------------------------------|


   S  S  S  S  S  S  S  S S S S S  S  S  S  S
|----------------------------------------------||
|---------------------------------------------o||
|----------------------------------------------||
|-------------------------5-5-5-5--------------||
|--8--8--8--8--7--7--7--7----------8--8--8--8-o||
|----------------------------------------------||
|
|  S  S  S  S  S  S  S  S S S S S  S  S  S  S
|----------------------------------------------||
|---------------------------------------------o||
|----------------------------------------------||
|-------------------------8-8-8-8--------------||
|-12-12-12-12-10-10-10-10---------12-12-12-12-o||
|----------------------------------------------||


 "Consume me with hate..."
  D5
  W                        W
|------------------------|---------------|
|------------------------|---------------|
|------------------------|---------------|
|------------------------|---------------|
|------------------------|---------------|
|------------------------|---------------|
|
| PM--------------------------------------
| S S S S E Q.   S S S S   E Q.   E E Q
|------------------------|---------------|
|------------------------|---------------|
|------------------------|---------------|
|-0-0-0-0-0------0-0-0-0-|-0-------------|
|-0-0-0-0-0------0-0-0-0-|-0------0-0----|
|-0-0-0-0-0------0-0-0-0-|-0------0-0----|


  W                        W
|------------------------|---------------|
|------------------------|---------------|
|------------------------|---------------|
|------------------------|---------------|
|------------------------|---------------|
|------------------------|---------------|
|
|-------------------------------------|
| S S S S E Q.   S S S S   E Q.   E E Q
|------------------------|---------------|
|------------------------|---------------|
|------------------------|---------------|
|-0-0-0-0-0------0-0-0-0-|-0-------------|
|-0-0-0-0-0------0-0-0-0-|-0------0-0----|
|-0-0-0-0-0------0-0-0-0-|-0------0-0----|


  D5
  W                        W               Wx2
|------------------------|---------------|--------|
|------------------------|---------------|--------|
|------------------------|---------------|--------|
|------------------------|---------------|--------|
|------------------------|---------------|--------|
|------------------------|---------------|--------|
|
| PM----------------------------------|
| S S S S E Q.   S S S S   E Q.   E E Q    Wx2
|------------------------|---------------|--------|
|------------------------|---------------|--------|
|------------------------|---------------|--------|
|-0-0-0-0-0------0-0-0-0-|-0-------------|--------|
|-0-0-0-0-0------0-0-0-0-|-0------0-0----|--------|
|-0-0-0-0-0------0-0-0-0-|-0------0-0----|--------|


 "...HATE..."
  Get fucking low Q=201
  D5
  Gtrs I, III, V
  PM---------------------------------------------------------------------|
  S S S S H    S S S S   H    S S Q.     S S S S H    S S S S   H    S S Q.
|----------------------|---------------|----------------------|----------------|
|----------------------|---------------|----------------------|----------------|
|----------------------|---------------|----------------------|----------------|
|----------------------|---------------|----------------------|----------------|
|-0-0-0-0-0----0-0-0-0-|-0----0-0-0----|-0-0-0-0-0----0-0-0-0-|-0----0-0-0-----|
|-0-0-0-0-0----0-0-0-0-|-0----0-0-0----|-0-0-0-0-0----0-0-0-0-|-0----0-0-0-----|
|
| Gtrs II, IV, VI
| PM---------------------------------------------------------------------|
| S S S S H    S S S S   H    S S Q.     S S S S H    S S S S   H    S S Q.
|----------------------|---------------|----------------------|----------------|
|----------------------|---------------|----------------------|----------------|
|----------------------|---------------|----------------------|----------------|
|----------------------|---------------|----------------------|----------------|
|-0-0-0-0-0----0-0-0-0-|-0----0-0-0----|-0-0-0-0-0----0-0-0-0-|-0----0-0-0-----|
|-0-0-0-0-0----0-0-0-0-|-0----0-0-0----|-0-0-0-0-0----0-0-0-0-|-0----0-0-0-----|


  D5
  PM------------------------------------
  S S S S H    S S S S   H    S S Q.
|----------------------|---------------|
|----------------------|---------------|
|----------------------|---------------|
|----------------------|---------------|
|-0-0-0-0-0----0-0-0-0-|-0----0-0-0----|
|-0-0-0-0-0----0-0-0-0-|-0----0-0-0----|
|
| PM------------------------------------
| S S S S H    S S S S   H    S S Q.
|----------------------|---------------|
|----------------------|---------------|
|----------------------|---------------|
|----------------------|---------------|
|-0-0-0-0-0----0-0-0-0-|-0----0-0-0----|
|-0-0-0-0-0----0-0-0-0-|-0----0-0-0----|


 -----------------------------------|
  S S S S H    S S S S   H    S   S Q.
|----------------------|---------------------|
|----------------------|---------------------|
|----------------------|---------------------|
|----------------------|---------------------|
|-0-0-0-0-0----0-0-0-0-|-0----0---0-0--------|
|-0-0-0-0-0----0-0-0-0-|-0----0---0-0--------|
|
|------------------------|
| S S S S H    S S S S   H    H           a
|----------------------|---------------------|
|----------------------|---------------------|
|----------------------|---------------------|
|----------------------|---------------------|
|-0-0-0-0-0----0-0-0-0-|-0----7b9--------(7)-|
|-0-0-0-0-0----0-0-0-0-|-0-------------------|


  D5
  PM---------------------------------------------------------------------|
  S S S S H    S S S S   H    S S Q.     S S S S H    S S S S   H    S S Q.
|----------------------|---------------|----------------------|----------------|
|----------------------|---------------|----------------------|----------------|
|----------------------|---------------|----------------------|----------------|
|----------------------|---------------|----------------------|----------------|
|-0-0-0-0-0----0-0-0-0-|-0----0-0-0----|-0-0-0-0-0----0-0-0-0-|-0----0-0-0-----|
|-0-0-0-0-0----0-0-0-0-|-0----0-0-0----|-0-0-0-0-0----0-0-0-0-|-0----0-0-0-----|
|
| PM---------------------------------------------------------------------|
| S S S S H    S S S S   H    S S Q.     S S S S H    S S S S   H    S S Q.
|----------------------|---------------|----------------------|----------------|
|----------------------|---------------|----------------------|----------------|
|----------------------|---------------|----------------------|----------------|
|----------------------|---------------|----------------------|----------------|
|-0-0-0-0-0----0-0-0-0-|-0----0-0-0----|-0-0-0-0-0----0-0-0-0-|-0----0-0-0-----|
|-0-0-0-0-0----0-0-0-0-|-0----0-0-0----|-0-0-0-0-0----0-0-0-0-|-0----0-0-0-----|


  D5
  PM------------------------------------
  S S S S H    S S S S   H    S S Q.
|----------------------|---------------|
|----------------------|---------------|
|----------------------|---------------|
|----------------------|---------------|
|-0-0-0-0-0----0-0-0-0-|-0----0-0-0----|
|-0-0-0-0-0----0-0-0-0-|-0----0-0-0----|
|
| PM------------------------------------
| S S S S H    S S S S   H    S S Q.
|----------------------|---------------|
|----------------------|---------------|
|----------------------|---------------|
|----------------------|---------------|
|-0-0-0-0-0----0-0-0-0-|-0----0-0-0----|
|-0-0-0-0-0----0-0-0-0-|-0----0-0-0----|


 -----------------------------------|
  S S S S H    S S S S   H    S S E Q
|----------------------|----------------*|
|----------------------|----------------*|
|----------------------|----------------*|
|----------------------|----------------*|
|-0-0-0-0-0----0-0-0-0-|-0----0-0-0-----*|
|-0-0-0-0-0----0-0-0-0-|-0----0-0-0-----*|
|
|-----------------------------------|
| S S S S H    S S S S   H    S S E Q
|----------------------|----------------*|
|----------------------|----------------*|
|----------------------|----------------*|
|----------------------|----------------*|
|-0-0-0-0-0----0-0-0-0-|-0----0-0-0-----*|
|-0-0-0-0-0----0-0-0-0-|-0----0-0-0-----*|


Duration Legend
---------------
W - whole; H - half; Q - quarter; E - 8th; S - 16th; T - 32nd; X - 64th; a - acciaccatura
+ - note tied to previous; . - note dotted; .. - note double dotted
Uncapitalized letters represent notes that are staccato (1/2 duration)
Irregular groupings are notated above the duration line
Duration letters will always appear directly above the note/fret number it represents the
duration for.  Duration letters with no fret number below them represent rests.  Multi-
bar rests are notated in the form Wxn, where n is the number of bars to rest for.  Low
melody durations appear below the staff

Tablature Legend
----------------
 h   - hammer-on
 p   - pull-off
 b   - bend
 pb  - pre-bend
 r   - bend release (if no number after the r, then release immediately)
 /\  - slide into or out of (from/to "nowhere")
 s   - legato slide
 S   - shift slide
  - natural harmonic
[n]  - artificial harmonic
n(n) - tapped harmonic
 ~   - vibrato
 tr  - trill
 T   - tap
 TP  - trem. picking
 PM  - palm muting
\n/  - tremolo bar dip; n = amount to dip
 \n  - tremolo bar down
 n/  - tremolo bar up
/n\  - tremolo bar inverted dip
 =   - hold bend; also acts as connecting device for hammers/pulls
 <>  - volume swell (louder/softer)
 x   - on rhythm slash represents muted slash
 o   - on rhythm slash represents single note slash

Misc Legend
-----------
 |  - bar
||  - double bar
||o - repeat start
o|| - repeat end
*|  - double bar (ending)
 :  - bar (freetime)
 $  - Segno
 &  - Coda
Tempo markers -  = BPM(8/16=s8/s16), where s8 = swing 8ths, s16 = swing 16ths





Comments


Popular Carnifex tabs & chords
Entombed Monarch Intro Tabs
Hell Chose Me Tabs
Hell Chose Me 3 Tabs
In Coalesce With Filth And Faith 2 Tabs
Lie To My Face 1 Tabs
Sadistic Embrace Tabs
Slit Wrist Savior Tabs
Slit Wrist Savior 1 Tabs
Slit Wrist Savior 2 Tabs
Sorrow Spell Intro Tabs


Song lyrics



↑ Back to top | Tablatures and chords are parodies/interpretations of the original songs. You may use it for private study, scholarship, research or language learning purposes only
© 2014 AZChords.com Contact us | Privacy policy | DMCA | Add/correct tabs | Request tabs | Top 50 tabs