» » »

Carnifex, Lie To My Face Tabs (ver.4)

Artists:  A B C D E F G H I J K L M N O P Q R S T U V W X Y Z # 

Lie To My Face Tabs (ver.4)

Carnifex Tabs
 Rating:
4.4/5 (7 votes)
Lie To My Face lessons Tabs too difficult? Try these video lessons and learn fast
1
                um well i did that intro tab to but it was just a start now i want to do the whole thing 
hope u like it enjoy :-D rate and comment plz its in drop A 7 string guitar but i dont 
one so..this isnt 100% correct
there fore i did the best i could on this took me 3 hours enjoy!:-D

* harmonic
h hammer on
p pull off
t tremolo pick
x cut off note / dead note

intro x2

|--------------------------------------------------------------------|
|--------------------------------------------------------------------|
|--------------------------------------------------------------------|
|-------5*-----------------------------------------------------------|
|----------------5*--------------------------------------------------|
|--0000----0000------0000----8t--7t--4t------------------------------|

then next riff x6

|--------------------------------------------------------------------|
|--------------------------------------------------------------------|
|--------------------------------------------------------------------|
|--------------------------------------------------------------------|
|----------88--55----------77--44------------------------------------|
|--00--00----------00--00--------------------------------------------|

then next riff...x4

|--------------------------------------------------------------------|
|--------------------------------------------------------------------|
|--------------------------------------------------------------------|
|--------22--11--------33--22----------------------------------------|
|--------------------------------------------------------------------|
|--0000----------0000------------------------------------------------|

cool riff next...x4

|--------------------------------------------------------------------|
|--------------------------------------------------------------------|
|--------------------------------------------------------------------|
|--------------------------------------------------------------------|
|--------5h7--------5h7h8p7p5----------------------------------------|
|--0000-------0000---------------------------------------------------|

another sick riff after...x2

|--------------------------------------------------------------------|
|--------------------------------------------------------------------|
|--------------------------------------------------------------------|
|---------------------------5--7--8--7--5----------------------------|
|------5h7h8p7p5-------5h7-------------------------------------------|
|--0t--------------0t------------------------------------------------|

then next riff...x3

|--------------------------------------------------------------------|
|--------------------------------------------------------------------|
|--------------------------------------------------------------------|
|--------------------------------------------------------------------|
|------5h7--4------5h7--5------8p7-----------------------------------|
|--00----------00----------00----------------------------------------|

then after is...x1

|--------------------------------------------------------------------|
|--------------------------------------------------------------------|
|--------------------------------------------------------------------|
|--------------------------------------------------------------------|
|------5h7--4------5h7--5h7--8p7-------------------------------------|
|--00----------00----------------------------------------------------|

then next riff...x3

|--------------------------------------------------------------------|
|--------------------------------------------------------------------|
|--------------------------------------------------------------------|
|--------------------------------------------------------------------|
|------5h7--4------5h7--5------8p7-----------------------------------|
|--00----------00----------00----------------------------------------|

then after is...x1

|--------------------------------------------------------------------|
|--------------------------------------------------------------------|
|--------------------------------------------------------------------|
|--------------------------------------------------------------------|
|------5h7--4------5h7--5h7--8p7-------------------------------------|
|--00----------00----------------------------------------------------|

then after is this short open chord at the ...wat the f**k part...
x1
|--------------|
|--------------|
|--------------|
|--0-----------|
|--0-----------|
|--0-----------|

then break down this part x4

|---------------------------------------------------------------------|
|---------------------------------------------------------------------|
|---------------------------------------------------------------------|
|---------------------------------------------------------------------|
|--3--2--1--0--3--2--1--0---------------------------------------------|
|--4--3--2--1--4--3--2--1---------------------------------------------|
                                                                       x2
|---------------------------------------------------------------------|
|---------------------------------------------------------------------|
|---------------------------------------------------------------------|
|---------------------------------------------------------------------|
|--3--2--1--0--3--2--1------------------------------------------------|
|--4--3--2--1--4--3--2--1*--------------------------------------------|

then next part...

|---------------------------------------------------------------------|
|---------------------------------------------------------------------|
|---------------------------------------------------------------------|
|---------------------------------------------------------------------|
|--4--3--2--1--0--1--2--3---------------------------------------------|
|--4--3--2--1--0--1--2--3---------------------------------------------|
                                                                       x2
|---------------------------------------------------------------------|
|---------------------------------------------------------------------|
|---------------------------------------------------------------------|
|---------------------------------------------------------------------|
|--4--3--2--1--0--1--2--4*--------------------------------------------|
|--4--3--2--1--0--1--2------------------------------------------------|

then tremolo pick riff

|---------------------------------------------------------------------|
|---------------------------------------------------------------------|
|---------------------------------------------------------------------|
|------------------------------8t--7t---------------------------------|
|--5t--7t--8t--7t--5t--7t--8t-----------------------------------------|
|---------------------------------------------------------------------|
                                                                       x2
|---------------------------------------------------------------------|
|---------------------------------------------------------------------|
|---------------------------------------------------------------------|
|------------------------------8t--7t------1st--2nd-------------------|
|--5t--7t--8t--7t--5t--7t--8t----------8t--7*---7t--------------------|
|---------------------------------------------------------------------|

then the sick part haha guitar 1 and 2 switch back and forth through\
here so ya play this part x2

|---------------------------------------------------------------------|
|---------------------------------------------------------------------|
|---------------------------------------------------------------------|
|---------------------------------------------------------------------|
|---------------------------------------------------------------------|
|--0h1h2h3----0h1h2h3---3p2p1p0--3p2p1p0------------------------------|

then next riff x4

|---------------------------------------------------------------------|
|---------------------------------------------------------------------|
|---------------------------------------------------------------------|
|---------------------------------------------------------------------|
|--0--1--2--3--0--1--2--3----3--2--1--0--3--2--1--0-------------------|
|--0--1--2--3--0--1--2--3----3--2--1--0--3--2--1--0-------------------|

then at the best part lie to my faceee
x1

|---------------|
|---------------|
|---------------|
|--3--2--1------|
|--3--2--1------|
|--3--2--1------|

then after...breakdown you work outthe rythem play x4

|----------------------------------------------------------------------|
|----------------------------------------------------------------------|
|----------------------------------------------------------------------|
|----------------------------------------------------------------------|
|--0--0--0--0--0--0--00000000----0--0--0-------------------------------|
|--1--1--1--1--1--1--11111111----1--1--1-------------------------------|

then some other cool part play x 2

|----------------------------------------------------------------------|
|----------------------------------------------------------------------|
|----------------------------------------------------------------------|
|----------------------------------------------------------------------|
|--000--0--0--00x--00x--000--0--0--00x--00x----------------------------|
|--000--0--0--00x--00x--000--0--0--00x--00x----------------------------|

then play this right after once
|------|
|------|
|------|
|--00--|
|--00--|
|--00--|

then another riff haha...x4

|---------------------------------------------------------------------|
|---------------------------------------------------------------------|
|---------------------------------------------------------------------|
|------------------------------8t--7t---------------------------------|
|--5t--7t--8t--7t--5t--7t--8t-----------------------------------------|
|---------------------------------------------------------------------|
                                                                       x2
|---------------------------------------------------------------------|
|---------------------------------------------------------------------|
|---------------------------------------------------------------------|
|------------------------------8t--7t------1st--2nd-------------------|
|--5t--7t--8t--7t--5t--7t--8t----------8t--7*---7t--------------------|
|---------------------------------------------------------------------|

then this last breakdown haha

|---------------------------------------------------------------------|
|---------------------------------------------------------------------|
|---------------------------------------------------------------------|
|---------------------------------------------------------------------|
|--3--2--1--0---3--2--1--0---3--2--1--0-------------------------------|
|--3--2--1--0---3--2--1--0---3--2--1--0-------------------------------|

then...this next

|---------------------------------------------------------------------|
|---------------------------------------------------------------------|
|---------------------------------------------------------------------|
|---------------------------------------------------------------------|
|--3--2--1--0---3--2--1--0---3--2--1--5h8-5h8-5h8-5h8-4h7-4h7-4h7-4h7-|
|--3--2--1--0---3--2--1--0---3--2--1----------------------------------|

now finally its been hours that ive been working on this the ending

|---------------------------------------------------------------------|
|---------------------------------------------------------------------|
|---------------------------------------------------------------------|
|---------------------------------------------------------------------|
|--3--2--1--0---3--2--1--0---3--2--1--0-------------------------------|
|--3--2--1--0---3--2--1--0---3--2--1--0-------------------------------|

the ending!!!woooot here it is thanks for viewing plz rate and comment!

|---------------------------------------------------------------------|
|---------------------------------------------------------------------|
|---------------------------------------------------------------------|
|---------------------------------------------------------------------|
|--3--2--1--0---3--2--1--0---3--2--1--0---1--0------------------------|
|--3--2--1--0---3--2--1--0---3--2--1--0---1--0------------------------|

                      thats it hope you liked it!
            
Submit corrections

comments powered by Disqus
↑ Back to top | Carnifex Tabs for Lie To My Face. Lyrics for acoustic guitar and electric guitar. 1 Tablatures and chords are parodies/interpretations of the original songs. You may use it for private study, scholarship, research or language learning purposes only