» » »

Hope Dies With The Decadent Tabs (ver.1)

Artists:  A B C D E F G H I J K L M N O P Q R S T U V W X Y Z # 

Hope Dies With The Decadent Tabs (ver.1)

Carnifex
Rating:
4/5 (2 votes)

Hard to play? Try these video lessons and learn fast.
                Tuning: Dropped A (A E A D F# B) *7-string arranged for 6*

I just tabbed this because i was bored.
I'm pretty sure this is how the song is played, but im not positive.
I'm not too sure if the intro is right but you should be able to sound it out if
you need too.
And I didn't tab all of the pinch harmonics because it gets annoying, but you
should be able to figure them out if it bothers you.
Have fun playing this and if you have any suggestions for revision please e-mail

LEGEND:
* = Palm Mute
~~ = Tremelo Picking
h = Hammer-on
p = Pull-off
<> = Pinch Harmonic

(00:04-00:13)
|-----------------|
|-----------------|
|-----------------|  x4
|-----------------|
|-0-3-2-0-3-2-4-2-|
|-0-3-2-1-3-2-5-3-|
  * * * * * * * *  

(00:13-00:30)
|-----------------------------------------------------------------|>
|-----------------------------------------------------------------|>>
|-----------------------------------------------------------------|>>>
|-----------------------------------------------------3---3---2---|>>>>
|-----5---5---5-------4---4---4-------5---5---5-------------------|>>>>>
|-0-0---0---0---0-1-1---1---1---1-0-0---0---0---0-2-2---2---2---2-|>>>>>>
  * *   *   *   * * *   *   *   * * *   *   *   * * *   *   *   *  
                                                                          x2
|-----------------------------------------------------------------|>>>>>>
|-----------------------------------------------------------------|>>>>>
|-----------------------------------------------------------------|>>>>
|-------------------------------------------------2h3-3-3-3-3-2-2-|>>>
|-----5---5---5-------4---4---4-------5---5---5-------------------|>>
|-0-0---0---0---1-1-1---1---1---1-0-0---0---0---0-----------------|>
  * *   *   *   * * *   *   *   * * *   *   *   *     ~~~~~~~~~~~~ 

(00:31-00:35)
|-----------------------------------|
|-----------------------------------|
|-----------------------------------|
|-----------------------------------| 
|-000-000-000-000---8-7-5-8-7-5-<7>-|
|-000-000-000-000-0-----------------|
  *** *** *** *** ~~~~~~~~~~~~~~     

(00:35-00:39)
|-----------------------------------|
|-----------------------------------|
|-----------------------------------|
|-----------------------------------| 
|-000-000-000-000---8-7-5-8-7-5-----|
|-000-000-000-000-0-------------<7>-|
  *** *** *** *** ~~~~~~~~~~~~~~     

(00:40-00:48)
|-----------------------------------|
|-----------------------------------|
|-----------------------------------|
|-----------------------------------| x2
|-000-000-000-000---8-7-5-8-7-5-<7>-|
|-000-000-000-000-0-----------------|
  *** *** *** *** ~~~~~~~~~~~~~~     

(00:48-01:05)
|---------------------------------------------------------------|>
|---------------------------------------------------------------|>>
|---------------------------------------------------------------|>>>
|-----------------5-------------------7---5h7p5-------5---3h5p3-|>>>>
|-----8---7---5-------8---7h8p7-8---------------7---------------|>>>>>
|-0-0---0---0---0---0---0-------8---8---8-------7---7---7-------|>>>>>>
  * *   *   *   *   *   *           *   *           *   *        
                                                                        x2
|---------------------------------------------------------------|>>>>>>
|---------------------------------------------------------------|>>>>>
|---------------------------------------------------------------|>>>>
|-----------------5-------------------7---5h7p5-------5---3h5p3-|>>>
|-0---8---7---5-------8---7h8p7-8---------------7---------------|>>
|-0-0---0---0---0---0---0-------8---8---8-------7---7---7-------|
    *   *   *   *   *   *           *   *           *   *        

(01:06-01:23)
|-----------------------------------------------------------------|
|-----------------------------------------------------------------|
|-----------------------------------------------------------------|
|-----------------------------------------------------------------| x4
|---------------------8---7---4-----------------------------------|
|-0-0-0-0-0-0-0-0-0-0---0---0---0-0-0-0-0-0-0-0-0-0-0-0-0-0-0-0-0-|
  * * * * * * * * * *   *   *   * * * * * * * * * * * * * * * * *  

(01:24-01:36)
|-------------------------------------------------|
|-------------------------------------------------|
|-------------------------------------------------|
|-------------5---------------5-----8-7-5---7-5---| x2
|---8-7-5-8-7---8---8-7-5-8-7---8---------------8-|
|-0---------------0---------------8-------7-------|
  ~~~~~~~~~~~~~~~~~~~~~~~~~~~~~~~~~~~~~~~~~~~~~~~~ 

(01:36-01:54)
|-----------------------------------------------------------------|>
|-----------------------------------------------------------------|>>
|-----------------------------------------------------------------|>>>
|-----------------------------------------------------3---3---2---|>>>>
|-----5---5---5-------4---4---4-------5---5---5-------------------|>>>>>
|-0-0---0---0---0-1-1---1---1---1-0-0---0---0---0-2-2---2---2---2-|>>>>>>
  * *   *   *   * * *   *   *   * * *   *   *   * * *   *   *   *  
                                                                          x2
|-----------------------------------------------------------------|>>>>>>
|-----------------------------------------------------------------|>>>>>
|-----------------------------------------------------------------|>>>>
|-------------------------------------------------2h3-3-3-3-3-2-2-|>>>
|-----5---5---5-------4---4---4-------5---5---5-------------------|>>
|-0-0---0---0---1-1-1---1---1---1-0-0---0---0---0-----------------|>
  * *   *   *   * * *   *   *   * * *   *   *   *     ~~~~~~~~~~~~ 

(01:54-02:29)
|-----------------|
|-----------------|
|-----------------|
|-----------------| x16
|-0-3-2-0-3-2-5-3-|
|-0-3-2-0-3-2-5-3-|
  * * * * * * * *  

(02:30-03:03)
|--------------------------|
|--------------------------|
|--------------------------|
|--------------------------| x12
|-000-000----0---0-000-000-|
|-000-000----0---0-000-000-|
  *** ***    *   * *** ***  

(03:04-03:38)
|---------------------------------------------------------------|>
|---------------------------------------------------------------|>>
|---------------------------------------------------------------|>>>
|-----------------5-------------------7---5h7p5-------5---3h5p3-|>>>>
|-----8---7---5-------8---7h8p7-8---------------7---------------|>>>>>
|-0-0---0---0---0---0---0-------8---8---8-------7---7---7-------|>>>>>>
  * *   *   *   *   *   *           *   *           *   *        
                                                                        x4
|---------------------------------------------------------------|>>>>>>
|---------------------------------------------------------------|>>>>>
|---------------------------------------------------------------|>>>>
|-----------------5-------------------7---5h7p5-------5---3h5p3-|>>>
|-0---8---7---5-------8---7h8p7-8---------------7---------------|>>
|-0-0---0---0---0---0---0-------8---8---8-------7---7---7-------|
    *   *   *   *   *   *           *   *           *   *        

(03:38-03:47)
|-----------------------------------------------------------------|
|-----------------------------------------------------------------|
|-----------------------------------------------------------------|
|-----------------------------------------------------3---3---2---|
|-----5---5---5-------4---4---4-------5---5---5-------------------|
|-0-0---0---0---0-1-1---1---1---1-0-0---0---0---0-2-2---2---2---2-|
  * *   *   *   * * *   *   *   * * *   *   *   * * *   *   *   *  
                                                                   
|-----------------------------------------------------------------|
|-----------------------------------------------------------------|
|-----------------------------------------------------------------|
|-------------------------------------------------2h3-3-3-3-3-2-2-|
|-----5---5---5-------4---4---4-------5---5---5-------------------|
|-0-0---0---0---1-1-1---1---1---1-0-0---0---0---0-----------------|
  * *   *   *   * * *   *   *   * * *   *   *   *     ~~~~~~~~~~~~ 

(03:47-end of song)
|---------|
|---------|
|---------|
|---------|
|-00000---|
|-00000---|
  *****
            
Hard to play? Try these video lessons and learn fast. | Correct




comments powered by Disqus
↑ Back to top | Tablatures and chords are parodies/interpretations of the original songs. You may use it for private study, scholarship, research or language learning purposes only