>
 >
Genocide Initiative

Genocide Initiative Guitar Tabs

Carnifex - Genocide Initiative chords, tabs, tablatures, lyrics

Guitar lessons | Add/correct | Request | Top 50 tabs Artists:  A B C D E F G H I J K L M N O P Q R S T U V W X Y Z 0-9

Genocide Initiative Guitar Tabs – Carnifex

CD, Sheet music, Poster

Do you like Genocide Initiative? Share with your friends now
Tabs


Tuning: Drop A (A-E-A-D-F#-B)


Key
 ____________________
| ~ = let ring       |
| / = slide          |
| " = trem pick      |
| pm* = palm mute    |
| ~~~ = vibrato      |
| * = pinch harmonic |
| h = hammer-on      |
| p = pull-off       |
| . = staccato       |
| // = legato slide  |
|____________________|



Intro 
(Gtr. I)
|----------------------------|
|----------------------------|
|----------------------------|
|-1--4--3--6-----------------|
|-1--4--3--6-----------------|
|-1--4--3--6--0"------4"--3"-|
pm*  *  *  *

(Gtr. II)
|----------------------------|
|----------------------------|
|----------------------------|
|-1--4--3--6-----------------|
|-1--4--3--6-----------------|
|-1--4--3--6--0"--6"--7"--6"-| 
pm*  *  *  *



Riff 1 (Both Gtrs.)
|---------------------------------------|
|---------------------------------------|
|---------------------------------------|
|-1h4p1---------1h4p1-0h3p0-------------|
|---------------------------------------|
|-------111-000-------------000-000-000-|
pm      *** ***             *** *** ***

|-------------------------------------------|
|-------------------------------------------|
|-------------------------------------------|
|-1h4p1---------1h4p1-0h3p0-----3h6p3-2h5p2-|
|-------------------------------------------|
|-------111-000-------------000-------------| (repeat)
pm      *** ***             ***



Riff 2 
(Gtr.I)
|--------------------------------------|
|--------------------------------------|
|--------------------------------------|
|----------------6"----------9"--8"----|
|-5"----6"-9"-8"----9"-6"-----------9"-|
|--------------------------------------|

(Gtr.II)
|---------------------------------------|
|---------------------------------------|
|---------------------------------------|
|----------8"-6"-9"-8"------12"--11"-8"-|
|-8"----9"-------------9"---------------|
|---------------------------------------|


(Gtr.I)
|--------------------------------------|
|--------------------------------------|
|--------------------------------------|
|----------------6"----------------6"--|
|-5"----6"-9"-8"----9"-6"--8"--9"------|
|--------------------------------------| (repeat whole riff)

(Gtr.II)
|--------------------------------------|
|--------------------------------------|
|--------------------------------------|
|----------8"-6"-9"-8"-----6"--8"--9"--|
|-8"----9"-------------9"--------------|
|--------------------------------------| (repeat whole riff)



Riff 1 
(Gtr.I is the same, but Gtr.II plays this)
|---------------------------------------|
|---------------------------------------|
|---------------------------------------|
|-4h7p4---------4h7p4-3h6p3-------------|
|---------------------------------------|
|-------111-000-------------000-000-000-|
pm      *** ***             *** *** ***

|-------------------------------------------|
|-------------------------------------------|
|-------------------------------------------|
|-4h7p4---------4h7p4-3h5p3-----6h9p6-5h8p5-|
|-------------------------------------------|
|-------111-000-------------000-------------| (repeat)
pm      *** ***             ***



Riff 3
(Gtr.I)
|-------------------------------------------------------------|
|-------------------------------------------------------------|
|-------------------------------------------------------------|
|----------------------------------------3h6p3-2h5p2-0"-------|
|-0"---3"--2"-------3"--2"---------2-3-0----------------2"-3"-|
|--------------6"-----------3"-----2-3-0----------------------|
pm                                 * * *

(Gtr.II)
|-------------------------------------------------------------|
|-------------------------------------------------------------|
|-------------------------------------------------------------|
|----------------------------------------6h9p6-5h8p5----------|
|-0"---3"--2"-------6"--5"---------2-3-0-------------8"-5"-7"-|
|--------------6"-----------3"-----2-3-0----------------------|
pm                                 * * *


>>> Repeat Riff 3, but replace endings with...
(Gtr.I)
|-----------------------------------|
|-----------------------------------|
|-----------------------------------|
|-------2h5p2-0h3p0-----3h6p3-0h3p0-|
|-2-3-0-----------------------------|
|-2-3-0-------------000-------------|
pm* * *             ***

(Gtr.II)
|-----------------------------------|
|-----------------------------------|
|-----------------------1h4p1-------|
|-------5h8p5-3h6p3-----------3h6p3-|
|-2-3-0-----------------------------|
|-2-3-0-------------000-------------|
pm* * *             ***



Bridge (Both Gtrs.)
|----------------------------------------------|
|----------------------------------------------|
|-2--~----~--3--~----~---2--~----~--3--~----~--|
|-0--~----~--1--~----~---0--~----~--1--~----~--|
|-0--~----~--1--~----~---0--~----~--1--~----~--|
|-0--~----~--1--~----~---0--~----~--1--~----~--|


(Gtr.I)
|------------------------|
|------------------------|
|------------------------|
|-.--------.----------.--|
|-0--0000000----------0--|
|-0--0000000----------0--|
pm*  *******          *

(Gtr.II)
|------------------------|
|------------------------|
|------------------------|
|------------------.--.--|
|------------000000---0--|
|------------0000001--0--|
pm           *******  *



Breakdown (Both Gtrs.)
|-------------------------------------------------|
|-------------------------------------------------|
|-------------------------------------------------|
|-.--------.--------.-----.--------.--------.--.--|
|-0--0000000--000000---000---0000000--000000---0--|
|-0--0000000--0000001--0001--0000000--0000001--0--|
pm*  *******  *******  ****  *******  *******  *

|----------------------------------------------|
|----------------------------------------------|
|----------------------------------------------|
|-.--------.--------.-----.--------.--------.--|
|-0--0000000--000000---000---0000000--000000---|
|-0--0000000--0000001--0001--0000000--0000001--|
pm*  *******  *******  ****  *******  *******


(Gtr.I)
|-------------|
|-------------|
|-------------|
|-------------|
|-0--~--0--~--|
|-0--~--0--~--|
pm*     *

(Gtr.II)
|-------------|
|-------------|
|-------------|
|-------------|
|-1--~--1--~--|
|-0--~--0--~--|
pm*     *


(Both Gtrs.)                                  
|-------------------------------------------------|
|-------------------------------------------------|
|-------------------------------------------------|
|-------------------------------------------------| (repeat
|-0--000---0--0000000--0000--000---0--0000000--0--|   this
|-0--0003400--0000001--0001--0003400--0000001--0--|  section)
pm*  *******  *******  ****  *******  *******  *



Riff 4 
(Gtr.I)
|----------------------------------------------------------|
|----------------------------------------------------------|
|---------------3--~---------------------------------------|
|-5--~--5-7-6-5-3--~--4--~--5--~--5-7-6----4--~--5555-4444-|
|-5--~--5-5-4-3-1--~--4--~--5--~--5-5-4-0--4--~------------|
|-5--~----------------4--~--5--~--------0--4--~------------|

(Gtr.II)
|----------------------------------------------------------|
|----------------------------------------------------------|
|---------------3--~----------------------------------*----|
|-5--~--5-7-6-5-3--~--4--~--5--~--5-7-6----4--~--5555-4~~~-|
|-5--~--5-5-4-3-1--~--4--~--5--~--5-5-4-0--4--~------------|
|-5--~----------------4--~--5--~--------0--4--~------------|



Riff 5
(Gtr.I)
|---------------------------------------------------|
|---------------------------------------------------|
|---------------------------------------------------|
|---------------------------------------------5"-4"-|
|-------5"4"---------------------5"4"---------------|
|-5"--------0"-4"----1"----5"--------0"-4"----------| (repeat)

(Gtr.II)
|---------------------------------------------------|
|---------------------------------------------------|
|---------------------------------------------------|
|---------------------------------------------5"-4"-|
|-------5"4"---------------------5"4"---------------|
|-5"--------3"-7"----4"----5"--------3"-7"----------| (repeat)



Riff 6a (Both Gtrs.)
|---------------------------------------------------------------------|
|---------------------------------------------------------------------|
|---------------------------------------------------------------------|
|-------5-----------*----------4//5-------3-----------*----------4//5-|
|-1-0-0-5-0-2p1-0-0-3b-0-1-0-3-2//3-1-0-0-3-0-2p1-0-0-3b-0-1-0-3-2//3-|
|-1-0-0---0-2p1-0-0----0-1-0-3------1-0-0---0-2p1-0-0----0-1-0-3------|
pm  * *   *     * *    * * * *        * *   *     * *    * * * *


Riff 6b (Both Gtrs.)
|-----------------------------------|
|-----------------------------------|
|-----------------------------------|
|-------3---2-------*----------4//5-|
|-100-0-3-0-2-100-0-3b-0-1-0-3-2//3-|
|-100-0---0---100-0----0-1-0-3------| (repeat)
pm*** *   *   *** *    * * * *



>>> Riff 2 (x2)


>>> Riff 1 (w/ harmony) (x2)


>>> Riff 3 (x4, fades out)



ACOUSTIC OUTRO (Gtr. tuned to Standard E) (all legato)
|---------3---------------3---------------0---------------2-------|
|---------------0---------------0-----1---------1-----3---------3-|
|-----0---------------0---------------------------------2---2-----|
|---2---2---2-------2---2---2-----------2---2-------0---------0---|
|-----------------------------------3---------3---0---------------|
|-0-----------0---0-----------0---3-------------------------------|

|---------3---------------3---------------0---------------------2-|
|---------------0---------------0-----0---------0-------------3---|
|-----0---------------0-------------------------------0-----2-----|
|---2---2---2-------2---2---2-------4---4---4-------5---5-0-------|
|---------------------------------2-----------2---3---------------|
|-0-----------0---0-----------0-----------------------------------|

Plays three times and fades



Killer song, but alot of work to tab everything out. Please rate/comment.
Thanks.





Comments


Popular Carnifex tabs & chords
Behold My Legion Tabs
Dead But Dreaming Tabs
Dead In My Arms Tabs
Hope Dies With The Decadent Tabs
Lie To My Face Tabs
Names Mean Nothing 1 Tabs
Slit Wrist Savior Tabs
Sorrow Spell Intro Tabs
Sorrowspell Tabs
The Liars Funeral Intro Tabs


Song lyrics



↑ Back to top | Tablatures and chords are parodies/interpretations of the original songs. You may use it for private study, scholarship, research or language learning purposes only
© 2014 AZChords.com Contact us | Privacy policy | DMCA | Add/correct tabs | Request tabs | Top 50 tabs