>
 >
Entombed Monarch

Entombed Monarch Guitar Tabs

Carnifex - Entombed Monarch chords, tabs, tablatures, lyrics

Guitar lessons | Add/correct | Request | Top 50 tabs Artists:  A B C D E F G H I J K L M N O P Q R S T U V W X Y Z 0-9

Entombed Monarch Guitar Tabs – Carnifex

CD, Sheet music, Poster

Do you like Entombed Monarch? Share with your friends now
Tabs
-------------------------------------------------------------------------------
-------------------------------------------------------------------------------

Tuning: A,E,A,D,G,B,E


| /   slide up
| \   slide down
| h   hammer-on
| p   pull-off
| ~   vibrato
| +   harmonic
| x   Mute note
| b   Bend
| pb  Pre-bend
| br  Bend release
| pbr Pre-bend release
| brb Bend release bend


Riff 1 (gtr 1) Single notes are tremmed.
|----------------------------------------------------|
|----------------------------------------------------|
|----------------------------------------------------|
|--------3-------3---------------3-------3-----------|
|----------2-------2---------------2-------2---------|
|------------------------------------------------2---|
|----111-----111-----111-111-111-----111-----111-----|

------------------------------------------------|
------------------------------------------------|
------------------------------------------------|
------3-------3--------------3------------------|
--------2-------2--------------2-----3----------|
---------------------------------------2--------|
-111-----111-----111-111-111-----111-----111-3--|
p.m. ---     ---     --- --- ---     ---     ---      ---     ---     --- --- ---     ---     ---


Riff 1 (gtr. 2)
|-----------------------------------------------------------|
|-----------------------------------------------------------|
|-----------------------------------------------------------|
|--------777666-----777666-------------777666-----777666----|
|---------------555---------------------------555-----------|
|-----------------------------------------------------------|
|----111-------------------111-111-111-------------------111|

----------------------------------------------------------------|
----------------------------------------------------------------|
----------------------------------------------------------------|
---------777666-----777666-------------777666-----777666--------|
----------------555---------------------------555---------------|
-222------------------------------------------------------------|
-----111-------------------111-111-111-------------------111-333|

P.M. ---                   --- --- ---       


Riff 2 (a) it's long so I make 2 parts
|---------------------------------------------------------------------|
|---------------------------------------------------------------------|
|---------------------------------------------------------------------|
|---------------------------------------------------------------------|
|---------------------------------------------------------------------|
|----------------333-444----------------------------------------------|
|----111-111-111---------333-333-333-444-444-444-888-777-777-333-333--|
p.m  --- --- --- --- --- --- --- --- --- --- --- --- --- --- --- ---

Riff 2 (b)
|---------------------------------------------------------------------|
|---------------------------------------------------------------------|
|---------------------------------------------------------------------|
|---------------------------------------------------------------------|
|---------------------------------------------------------------------|
|----------------333-444---------------------------------888-777-777--|
|----111-111-111---------333-333-333-444-444-444-888-777--------------|
p.m. --- --- --- --- --- --- --- --- --- --- --- --- --- --- --- ---

riff 2 (a) again then this                               trem
|---------------------------------------------------------------------|
|---------------------------------------------------------------------|
|---------------------------------------------------------------------|
|--------------------------------------------------------88887777-----|
|----------------------------------------------------------------8888-|
|----------------333-444----------------------------------------------|
|----111-111-111---------333-333-333-444-444-444-888-777--------------|
p.m. --- --- --- --- --- --- --- --- --- --- --- --- --- 


riff 3 all tremmed
|-----------------------------------------------------------------------------|
|-----------------------------------------------------------------------------|
|-----------------------------------------------------------------------------|
|-----------------------------------------------------------------------------|
|----------------------------------------------------------8---8---8---8-7----|
|--5----5---5----5-8-7----7---7----7---10---10---10---10-------------------8--|
|-----8---8----8--------7---7----7---7----8----8----8----8---7---7---7--------|


right into the b-down
|-----------------------------------------------------|
|-----------------------------------------------------|
|-----------------------------------------------------|
|-------------------------------------------3-----3---|
|-----------------------------------------------------|
|--0----0-0-0-0---0000-0--0-0-0---0-0-0-0-----2-----2-|
|--1----1-1-1-1---1111-1--1-1-1---1-1-1-1-1-----1-----|

-------------------------------------------------------------|
-------------------------------------------------------------|
-------------------------------------------------------------|
--3---4-----4-----4------------------------------------------|
-------------------------------------------------------------|
--------3-----3------0----0-0-0-0---0000-0--0-0-0---0-0-0-0--|
1---2-----2-----2----1----1-1-1-1---1111-1--1-1-1---1-1-1-1--|

                                          |   let all these notes ring   |



the run after the b-down
|------------------------------------------------------------------------|
|------------------------------------------------------------------------|
|------------------------------------------------------------------------|
|----------4----------------7----------------6-----------------9---------|
|------5-2---5-2--------8-5---8-5--------7-4---7-4--------10-7---10-9----|
|--3-2-----------3--6-5-----------6--5-4-----------5--8-7-------------8--|
|------------------------------------------------------------------------|
                 |
the second guitar 
comes in at the mark 3 frets higher.

 
Riff 4(a)
|---------------------------------------------------------------------|
|---------------------------------------------------------------------|
|---------------------------------------------------------------------|
|---------------------------------------------------------------------|
|----------------------7---10---9-----------------10---8---11---10h11-|
|---------8--------8---------------------8----------------------------|
|---7-777---7-7-77---7---7----7----8-888---8-8-88----8---8----8-------|
    - ---   -   --   -   -    -    - ---   -   --

riff 4(b)
|----------------------------------------------------------------------------------------------|
|----------------------------------------------------------------------------------------------|
|----------------------------------------------------------------------------------------------|
|------------------------------------------------------------------------------------------7-6-|
|----------------------7---10---9--------7---6--------7---6-----------6---5------------9-6-----|
|---------8--------8-----------------------------7------------7---------------6----8-7---------|
|---7-777---7-7-77---7---7----7----4-444---4---4---44---4---4---3-333---3---3---00-------------|
    - ---   -   --   -   -    -    - ---   -   -   --   -   -   - ---   -   -   --

Riff 4(c)
|----------------------------------------------------------------------------------------------|
|----------------------------------------------------------------------------------------------|
|----------------------------------------------------------------------------------------------|
|----------------------------------------------------------------------------------5-4---------|
|----------------------7---10---9--------7---6--------7---6-----------6---5------------6-5-----|
|---------8--------8-----------------------------7------------7---------------6------------7-6-|
|---7-777---7-7-77---7---7----7----4-444---4---4---44---4---4---3-333---3---3---00-------------|
    - ---   -   --   -   -    -    - ---   -   -   --   -   -   - ---   -   -   --

riff 5 2x
|------------------------------------------------------------------|
|------------------------------------------------------------------|
|------------------------------------------------------------------|
|------------------------------------------------------------------|
|------------------------------------------------------------------|
|------6---6-------6---6-------5-------6---6-------5-----3-----2---|
|--0-5---5---5-0-5---5---5-0-3---3-0-5---5---5-0-3---3-2---2-1---1-|

so after that riff we go back to the opening riff and gtr 2 just plays the main 
notes. I'm sure you can tell on the cd.
Then we go to this riff:
Riff 6- all tremmed
|------------------------|
|------------------------|
|------------------------|
|------------------------|
|------------------------|
|---------5--6-4-1-0-----|
|---0-7-6------------1---|

Riff 6-gtr 2 on the 3rd and 4ht counts.
|------------------------|
|------------------------|
|------------------------|
|------------------------|
|------------------------|
|---------7--8-6-4-3-----|
|---3-9-8------------4---|

then this trem riff
riff 7
|------------------------------------------------------------------------|
|------------------------------------------------------------------------|
|------------------------------------------------------------------------|
|---7-----------------7-5-8-7----7---------------8-7---8-7-5--7----------|
|-----8-7-----------5---------6----8-7---------------5----------8-7------|
|---------5-6---5-6--------------------5-6---5-6-----5--------------5-6--|
|----------------------------------------------------5-------------------|

---------------------------------------------------------------|
---------------------------------------------------------------|
---------------------------------------------------------------|
---------7-5-8----7---------------8-7---8-7-5-----8-7---8-7-5--|
-----5-6-------6----8-7---------------5---------------5--------|
-5-6--------------------5-6---5-6-----5-------5-6-----5--------|
--------------------------------------5---------------5--------|


Then back to riff 3 for 2 counts and on the second count, Ryan does this harmony thing
|--------------------------------------------------------------|
|--------------------------------------------------------------|
|--------------------------------------------------------------|
|--7------9-7-6---------9-10-12-----9-----10-9-6-----------3---|
|--------------------------------------------------------------|
|--5------7-5-4---------7-8-10-------7------8-7-4-----------1--|
|--------------------------------------------------------------|





Comments


Popular Carnifex tabs & chords
Dead Against The Gate Tabs
Hope Dies With The Decadent Tabs
In Coalesce With Filth And Faith 1 Tabs
Lie To My Face Tabs
Lie To My Face 1 Tabs
Lie To My Face 2 Tabs
Love Lies In Ashes Tabs
Sorrow Spell Intro Tabs
The Liars Funeral Intro Tabs
To My Dead And Dark Dreams Tabs


Song lyrics



↑ Back to top | Tablatures and chords are parodies/interpretations of the original songs. You may use it for private study, scholarship, research or language learning purposes only
© 2014 AZChords.com Contact us | Privacy policy | DMCA | Add/correct tabs | Request tabs | Top 50 tabs