>
 >
Dead But Dreaming

Dead But Dreaming Guitar Tabs

Carnifex - Dead But Dreaming chords, tabs, tablatures, lyrics

Guitar lessons | Add/correct | Request | Top 50 tabs Artists:  A B C D E F G H I J K L M N O P Q R S T U V W X Y Z 0-9

Dead But Dreaming Guitar Tabs – Carnifex

CD, Sheet music, Poster

Do you like Dead But Dreaming? Share with your friends now
Tabs
Dead, But Dreaming - Carnifex



^Bend Up
_Palm Mute
xStop strings


Intro Riff 1
E|----------------|----------------|----------------|----------------|
B|----------------|----------------|----------------|----------------|
G|----------------|----------------|----------------|----------------|
D|3---------------|----------------|6---------------|2---------------|
A|1---------------|----------------|4---------------|0---------------|
E|1---------------|----------------|4---------------|0---------------|
A|1---------------|----------------|4---------------|0---------------|


|----------------|----------------|----------------|----------------|
|----------------|----------------|----------------|----------------|
|----------------|----------------|----------------|----------------|
|3---------------|----------------|4---------------|2---------------|
|1---------------|----------------|4---------------|0---------------|
|1---------------|----------------|2---------------|0---------------|
|1---------------|----------------|----------------|0---------------|




Guitar 1 Riff 2                     Riff 2 First Ending
E|----------------|----------------|----------------|----------------|
B|----------------|----------------|----------------|----------------|
G|----------------|----------------|----------------|----------------|
D|----------------|----------------|----------------|----------------|
A|----------------|----------------|----------------|----------------|
E|--------1-------|--------2-1-----|----------------|----------------|
A|1-1-0-3---4-3-4-|1-1-0-3-----4-3-|0000888866664444|0000999988886666|
  _ _ _ _   _ _ _  _ _ _ _     _ _ 

Guitar 1 Riff 2 Second Ending
E|----------------|----------------|
B|----------------|----------------|
G|----------------|----------------|
D|----------------|----------------|
A|----------------|3333------------|
E|2222333355556666|----666655556666|
A|----------------|----------------|

Guitar 2 Riff 2 First Ending
E|----------------|----------------|
B|----------------|----------------|
G|----------------|----------------|
D|----------------|----------------|
A|----------------|----------------|
E|----------------|----------------|
A|0000888866664444|0000666644443333|

Guitar 2 Riff 2 Second Ending
E|----------------|----------------|
B|----------------|----------------|
G|----------------|----------------|
D|----------------|----------------|
A|----------------|6666------------|
E|----666688889999|----999988889999|
A|0000------------|----------------|

Guitar 1 Riff 3
E|----------------|----------------|----------------|----------------|
B|----------------|----------------|----------------|----------------|
G|----------------|----------------|----------------|----------------|
D|----------------|----------------|----------------|----------------|
A|9999999988886666|8888------------|----------------|----------------|
E|----------------|----999988888888|5555555588888888|6666666666666666|
A|----------------|----------------|----------------|----------------|

                                   *First Ending
|----------------|----------------|----------------|----------------|
|----------------|----------------|----------------|----------------|
|----------------|----------------|----------------|----------------|
|----------------|----------------|----------------|----------------|
|9999999988886666|8888------------|----------------|----------------|
|----------------|----999988888888|5555555588888888|----------------|
|----------------|----------------|----------------|8888888888888888|

*Second Ending
e|----------------|----------------|
B|----------------|----------------|
G|----------------|----------------|
D|----------------|----------------|
A|----------------|----------------|
E|5555555555555555|----------------|
A|----------------|8888888888888888|

Guitar 2 Riff 3
e|----------------|----------------|----------------|----------------|
B|----------------|----------------|----------------|----------------|
G|----------------|----------------|----------------|----------------|
D|----------------|----------------|----------------|----------------|
A|6666666644443333|4444------------|3333333366666666|4444444444444444|
E|----------------|----666655555555|----------------|----------------|
A|----------------|----------------|----------------|----------------|


|----------------|----------------|----------------|----------------|
|----------------|----------------|----------------|----------------|
|----------------|----------------|----------------|----------------|
|----------------|----------------|----------------|----------------|
|6666666644443333|4444------------|3333333333333333|----------------|
|----------------|----666655555555|----------------|5555555555555555|
|----------------|----------------|----------------|----------------|



Guitar 1 Riff 4
E|----------------|----------------|----------------|----------------|
B|----------------|----------------|----------------|----------------|
G|----------------|----------------|----------------|----------------|
D|----------------|----------------|----------------|----------------|
A|----------------|----------------|----------------|----------------|
E|1---------------|----------------|4---------------|0---------------|
A|1---111-111-111-|111-111-111-111-|4---444-444-444-|0---000-000-000-|
      ___ ___ ___  ___ ___ ___ ___      ___ ___ ___      ___ ___ ___      

                                   *First ending
|----------------|----------------|----------------|-----------------|
|----------------|----------------|----------------|-----------------|
|----------------|----------------|----------------|-----------------|
|----------------|----------------|----------------|-----------------|
|----------------|----------------|7---------------|10-------6-------|
|1---------------|----------------|4---------------|7 -------3-------|
|1---111-111-111-|111-111-111-111-|4---------------|7 -------3-------|
     ___ ___ ___  ___ ___ ___ ___ 

Guitar 1 Riff 4 Second Ending
E|----------------|----------------|
B|----------------|----------------|
G|----------------|----------------|
D|3-------4-------|7-------4-------|
A|----------------|----------------|
E|1-------2-------|5-------2-------|
A|----------------|----------------|


Guitar 2 Riff 4 Second Ending
E|----------------|-----------------|
B|----------------|-----------------|
G|----------------|-----------------|
D|6-------7-------|10-------7-------|
A|----------------|-----------------|
E|4-------5-------|8 -------5-------|
A|----------------|-----------------|



Riff 5(Breakdown 1)
e|----------------|----------------|----------------|----------------|
B|----------------|----------------|----------------|----------------|
G|----------------|----------------|----------------|----------------|
D|----------------|----------------|----------------|----------------|
A|----------------|----------------|----------------|----------------|
E|----------------|----------------|----------------|----------------|
A|1-----1-----1---|--0---0-0-0-1---|--0---0-0-0-1---|--0---0-0-0-1---|
  ^     ^     ^      _   _ _ _ ^      _   _ _ _ ^      _   _ _ _ ^ 



Riff 6-Both guitars the first time through
e|----------------|----------------|----------------|----------------|
B|----------------|----------------|----------------|----------------|
G|----------------|----------------|----------------|----------------|
D|----------------|----------------|----------------|----------------|
A|----------------|----------------|----------------|----------------|
E|----2222----4444|----3333--------|----------------|----------------|
A|3333----3333----|3333----33332222|3333444433332222|6666444433334444|


|----------------|----------------|----------------|----------------|
|----------------|----------------|----------------|----------------|
|----------------|----------------|----------------|----------------|
|----------------|----------------|----------------|----------------|
|----------------|----------------|----------------|----------------|
|----2222----4444|----3333--------|----------------|--------1---4---|
|3333----3333----|3333----33332222|3333444433332222|666644441---4---|
                                                            _   _

Guitar 2 Riff 6-Harmony
e|----------------|----------------|----------------|----------------|
B|----------------|----------------|----------------|----------------|
G|----------------|----------------|----------------|----------------|
D|----------------|----------------|----------------|----------------|
A|----------------|----------------|----------------|----------------|
E|----5555----7777|----6666--------|----------------|----------------|
A|6666----6666----|6666----66665555|6666777766662222|9999444433334444|


|----------------|----------------|----------------|----------------|
|----------------|----------------|----------------|----------------|
|----------------|----------------|----------------|----------------|
|----------------|----------------|----------------|----------------|
|----------------|----------------|----------------|----------------|
|----5555----7777|----6666--------|----------------|--------1---4---|
|6666----6666----|6666----66665555|6666777766662222|999944441---4---|
                                                            _   _


Guitar 1 Riff 7
e|----------------|----------------|----------------|----------------|
B|----------------|----------------|----------------|----------------|
G|----------------|----------------|----------------|----------------|
D|----------------|----------------|----------------|----------------|
A|1---------------|9---------------|0---------------|8---------------|
E|1---------------|9---------------|0---------------|8---------------|
A|1---------------|9---------------|0---------------|8---------------|


|----------------|----------------|----------------|----------------|
|----------------|----------------|----------------|----------------|
|----------------|----------------|----------------|----------------|
|----------------|----------------|----------------|----------------|
|1---------------|9---------------|0---------------|8-------6-------|
|1---------------|9---------------|0---------------|8-------6-------|
|1---------------|9---------------|0---------------|8-------6-------|

Guitar 2 Riff 7
e|----------------|----------------|----------------|----------------|
B|----------------|----------------|----------------|----------------|
G|----------------|----------------|----------------|----------------|
D|----------------|8---------------|----------------|7---------------|
A|1---------------|8---------------|0---------------|7---------------|
E|1---------------|6---------------|0---------------|5---------------|
A|1---------------|----------------|0---------------|----------------|


|----------------|----------------|----------------|----------------|
|----------------|----------------|----------------|----------------|
|----------------|----------------|----------------|----------------|
|----------------|8---------------|----------------|7-------5-------|
|1---------------|8---------------|0---------------|7-------5-------|
|1---------------|6---------------|0---------------|5-------3-------|
|1---------------|----------------|0---------------|----------------|


Riff 8(Breakdown 2)
e|----------------|----------------|----------------|----------------|
B|----------------|----------------|----------------|----------------|
G|----------------|----------------|----------------|----------------|
D|----------------|----------------|----------------|----------------|
A|----------------|----------------|----------------|----------------|
E|1------1--------|1-1-0---1-1-0---|1------1-----1--|1111x---1111x---|
A|0------0----0000|1-1-0---1-1-0---|0------0-----0--|0000x---0000x---|
  _      _    ____ _ _ _   _ _ _    _      _     _   ____    ____

                                                    *Change 2nd Time
|----------------|----------------|----------------|----------------|
|----------------|----------------|----------------|----------------|
|----------------|----------------|----------------|----------------|
|----------------|----------------|----------------|----------------|
|----------------|----------------|6------5--------|----------------|
|1------1--------|1-1-0---1-1-0---|3------2-----0--|2-2x--2-1x--2-2-|
|0------0----0000|1-1-0---1-1-0---|3------2-----0--|1-1x--1-1x--1-1-|
 _      _    ____ _ _ _   _ _ _                 _   _ _   _ _   _ _

Guitar 1 Riff 8 2nd ending
E|----------------|
B|----------------|
G|----------------|
D|----------------|
A|----------------|
E|8-------6-------|
A|8-------6-------|

Guitar 2 Riff 8 2nd ending
E|----------------|
B|----------------|
G|----------------|
D|----------------|
A|7-------5-------|
E|7-------5-------|
A|5-------3-------|

After the riffs repeat until the last riff

Riff 9(a)(Breakdown 3)
e|----------------|----------------|----------------|----------------|
B|----------------|----------------|----------------|----------------|
G|----------------|----------------|----------------|----------------|
D|----------------|----------------|----------------|----------------|
A|4---4---4-x-----|5-4--4-4-x------|4---4-x-----5-x-|----4---4-x-----|
E|1---1---1-x-----|2-1--1-1-x------|1---1-x-----2-x-|----1---1-x-----|
A|1---1---1-x-----|2-1--1-1-x------|1---1-x-----2-x-|----1---1-x-----|
  _   _   _        _ _  _ _         _   _       _        _   _      

|----------------|----------------|----------------|----------------|
|----------------|----------------|----------------|----------------|
|----------------|----------------|----------------|----------------|
|----------------|----------------|----------------|----------------|
|4---4---4-x-----|5-4--4-4-x------|5-5-5-4-x-5-5-5-|4-x-5-5-5-4-x---|
|1---1---1-x-----|2-1--1-1-x------|2-2-2-1-x-2-2-2-|1-x-2-2-2-1-x---|
|1---1---1-x-----|2-1--1-1-x------|2-2-2-1-x-2-2-2-|1-x-2-2-2-1-x---|
 _   _   _        _ _  _ _         _ _ _ _   _ _ _  _   _ _ _ _     

Riff 9(B) 
e|----------------|----------------|----------------|----------------|
B|----------------|----------------|----------------|----------------|
G|----------------|----------------|----------------|----------------|
D|----------------|----------------|----------------|----------------|
A|----------------|----------------|----------------|----------------|
E|0---0---0-------|1-0--0-0--------|0---0-------1---|----0---0-------|
A|0---0---0-------|1-0--0-0--------|0---0-------1---|----0---0-------|
  _   _   _        _ _  _ _         _   _       _        _   _

|----------------|----------------|----------------|----------------|
|----------------|----------------|----------------|----------------|
|----------------|----------------|----------------|----------------|
|----------------|----------------|----------------|----------------|
|----------------|----------------|----------------|----------------|
|0---0---0-------|1-0--0-0--------|1-1-1-0---1-1-1-|0---1-1-1-0-----|
|0---0---0-------|1-0--0-0--------|1-1-1-0---1-1-1-|0---1-1-1-0-----|
 _   _   _        _ _  _ _         _ _ _ _   _ _ _  _   _ _ _ _ 





Comments


Popular Carnifex tabs & chords
Dead Against The Gate Tabs
Dead In My Arms Tabs
Entombed Monarch Tabs
Entombed Monarch Intro Tabs
In Coalesce With Filth And Faith 2 Tabs
Slit Wrist Savior 1 Tabs
Slit Wrist Savior 2 Tabs
Sorrow Spell Intro Tabs
Sorrowspell Tabs
The Diseased And The Poisoned Intro Tabs


Song lyrics



↑ Back to top | Tablatures and chords are parodies/interpretations of the original songs. You may use it for private study, scholarship, research or language learning purposes only
© 2014 AZChords.com Contact us | Privacy policy | DMCA | Add/correct tabs | Request tabs | Top 50 tabs