>
 >
Behold My Legion

Behold My Legion Guitar Tabs

Carnifex - Behold My Legion chords, tabs, tablatures, lyrics

Guitar lessons | Add/correct | Request | Top 50 tabs Artists:  A B C D E F G H I J K L M N O P Q R S T U V W X Y Z 0-9

Behold My Legion Guitar Tabs – Carnifex

CD, Sheet music, Poster

Do you like Behold My Legion? Share with your friends now
Tabs
                     When i posted this it was cause the other
                       guy Gavcobhc posted it under unsigned
                       bands i just reposted it under signed  
                        I dont take credit for this tab
                          all thanks to Gavcobhc for
                            tabbing this song out.


* - palm mute
p - pull off

Main/Intro Riff
e|---------------------------------------------------------------------------|
B|---------------------------------------------------------------------------|
G|---------------------------------------------------------------------------|
D|---------------------------------------------------------------------------|
A|-------2-----3-----5-3-2--------2-----3-----5-3-2-------2-----3-----5-3-2--|
E|-0-0-0---0-0---0-0--------0-0-0---0-0---0-0-------0-0-0---0-0---0-0--------|
   * * *   * *   * *        * * *   * *   * *       * * *   * *   * *
e|---------------------------------------------------------------------------|
B|---------------------------------------------------------------------------|
G|---------------------------------------------------------------------------|
D|-------------5-3-2---------------------------------------------------------|
A|-------2-----------5-3-2---------------------------------------------------|
E|-0-0-0---0-0---------------------------------------------------------------|
   * * *   * *

Harmonised Main/Intro Riff
e|---------------------------------------------------------------------------|
B|---------------------------------------------------------------------------|
G|---------------------------------------------------------------------------|
D|---------------------------------------------------------------------------|
A|-------9-----10-----12-10-9-------9-----10-----12-10-9---------------------|
E|-7-7-7---7-7----7-7---------7-7-7---7-7---7-7------------------------------|
   * * *   * *    * *         * * *   * *   * *          
e|---------------------------------------------------------------------------|
B|---------------------------------------------------------------------------|
G|---------------------------------------------------------------------------|
D|-----------------------------------------12-10-9---------------------------|
A|-------9-----10-----12-10-9--------2-------------12-10-9-------------------|
E|-7-7-7---7-7----7-7----------7-7-7---7-7-----------------------------------|
                               * * *   * *
Intro to Verse Riff
e|----------------------------------------------------------------------------|
B|----------------------------------------------------------------------------|
G|-------------------------------------------7-5-4----------------------------|
D|-5-3-2-------5-3-2-------7-5-4-------7-5-4----------------------------------|
A|-------5-3-2-------5-3-2-------7-5-4----------------------------------------|
E|----------------------------------------------------------------------------|

Verse
e|----------------------------------------------------------------------------|
B|----------------------------------------------------------------------------|
G|----------------------------------------------------------------------------|
D|----------------------------------------------------------------------------|
A|-------------------8-6-5-------------6-4-3-10-8-7---------------------------|
E|-0-0-0-0-0-0-0-0-0-------0-0-0-0-0-0----------------------------------------|
   * * * * * * * * *       * * * * * *
e|----------------------------------------------------------------------------|
B|----------------------------------------------------------------------------|
G|----------------------------------------------------------------------------|
D|-------------------------------------------5-7------------------------------|
A|-------------------8-6-5-------------6-4-3-5-7------------------------------|
E|-0-0-0-0-0-0-0-0-0-------0-0-0-0-0-0-------3-5------------------------------|
   * * * * * * * * *       * * * * * *

Chorus
e|----------------------------------------------------------------------------|
B|----------------------------------------------------------------------------|
G|------------------------------------------------*---------------------------|
D|-------2---222-333-555-333-------5--333-555-777-5---------------------------|
A|-------2-------------------------5------------------------------------------|
E|-0-0-0-0-------------------3-3-3-3------------------------------------------|
   * * * *                   * * *                +

Solo Rythem
e|----------------------------------------------------------------------------|
B|----------------------------------------------------------------------------|
G|----------------------------------------------------------------------------|
D|----------------------------------------------------------------------------|
A|--5p0-3p0-5p0-7p0-5p0-3p0---5p0-3p0-5p0-7p0-5p0-3p0-------------------------|
E|----------------------------------------------------------------------------|

e|---------------------------------------------------------------------------|
B|---------------------------------------------------------------------------|
G|---------------------------------------------------------------------------|
D|--------------------------------------------*------------------------------|
A|--5p0-3p0-5p0-7p0-5p0-3p0---5p0-3p0-5p0-7p0-5------------------------------|
E|---------------------------------------------------------------------------|
                                              +
Harmonised Guitar Riff 1
e|----------------------------------------------------------------------------|
B|----------------------------------------------------------------------------|
G|-------------------------------------------7-5-4----------------------------|
D|-5-3-2-------5-3-2-------7-5-4-------7-5-4----------------------------------|
A|-------5-3-2-------5-3-2-------7-5-4----------------------------------------|
E|----------------------------------------------------------------------------|

Harmonised Guitar Riff 2
e|----------------------------------------------------------------------------|
B|----------------------------------------------------------------------------|
G|-------------------------------------------7-5-4----------------------------|
D|-5-3-2-------5-3-2-------7-5-4-------7-5-4----------------------------------|
A|-------5-3-2-------5-3-2-------7-5-4----------------------------------------|
E|----------------------------------------------------------------------------|





Comments


Popular Carnifex tabs & chords
Answers In Mourning Tabs
Hell Chose Me 1 Tabs
Hell Chose Me 3 Tabs
In Coalesce With Filth And Faith 1 Tabs
Lie To My Face Intro Tabs
Names Mean Nothing Tabs
Slit Wrist Savior 2 Tabs
Sorrow Spell Intro Tabs
Sorrowspell Tabs
Until I Feel Nothing Tabs


Song lyrics



↑ Back to top | Tablatures and chords are parodies/interpretations of the original songs. You may use it for private study, scholarship, research or language learning purposes only
© 2014 AZChords.com Contact us | Privacy policy | DMCA | Add/correct tabs | Request tabs | Top 50 tabs