>
 >
Answers In Mourning

Answers In Mourning Guitar Tabs

Carnifex - Answers In Mourning chords, tabs, tablatures, lyrics

Guitar lessons | Add/correct | Request | Top 50 tabs Artists:  A B C D E F G H I J K L M N O P Q R S T U V W X Y Z 0-9

Answers In Mourning Guitar Tabs – Carnifex

CD, Sheet music, Poster

Do you like Answers In Mourning? Share with your friends now
Tabs
                      This is another one of my
                        Tabs by carnifex ive 
                       Done quite a few of them
                          So enjoy this (:
                            




Things to know,

Tuning - Drop A 

h - Hammer On
p - Pull Off
x - Times played
~ - Let Ring
* - Pinch Harmonic


Intro
|-----------------|
|-----------------|
|-----------------|
|-----------------|
|-----------------|
|-----------------|
|--4-3-2-3-2-1----|

cool riff
|--------------------------------------------------|
|--------------------------------------------------|
|--------------------------------------------------|
|--------------------------------------------------|  (2x)
|--------------------------------------------------|
|--------------------------------------------------|
|--4-3-2-1~--4-3-2-1~--4-3-2-1~-0-1-0-1-2-1-2-3----|

Then like this
|--------------------------------------------------|
|--------------------------------------------------|
|--------------------------------------------------|
|--------------------------------------------------|
|--------------------------------------------------|
|--4-3-2-1~--4-3-2-1~--4-3-2-1~-0-1-0-1-2-1-2-3----|
|--4-3-2-1~--4-3-2-1~--4-3-2-1~-0-1-0-1-2-1-2-3----|

|--------------------------------------------------|
|--------------------------------------------------|
|--------------------------------------------------|
|--------------------------------------------------|
|------------------------------------------3*------|
|--4-3-2-1~--4-3-2-1~--4-3-2-1~-0-1-0-1-2----------|
|--4-3-2-1~--4-3-2-1~--4-3-2-1~-0-1-0-1-2----------|

This riff
|------------------------------|
|------------------------------|
|------------------------------|
|------------------------------|  (4x)
|------------------------------|
|------------------------------|
|--4-3-2-1~-0-1-0-1-2-1-2-3----|

Fast riff
|--------------------------------------------|
|--------------------------------------------|
|--------------------------------------------|
|--------------------------------------------|
|--------------------------------------------|
|------------------------------8888-7777-----|
|--00000000-8888-7777-55555555---------------|

|------------------------------------------------|
|------------------------------------------------|
|------------------------------------------------|
|------------------------------------------------|
|------------------------------------------------|
|---------------------7777-10101010-8888-7777----|
|--00000000-8888-7777----------------------------|

|--------------------------------------------|
|--------------------------------------------|
|--------------------------------------------|
|--------------------------------------------|
|--------------------------------------------|
|------------------------------8888-7777-----|
|--00000000-8888-7777-55555555---------------|

|--------------------------------------------|
|--------------------------------------------|
|--------------------------------------------|
|--------------------------------------------|
|--------------------------------------------|
|----------------------8-10-8-7-8-7-5-7------|
|--00000000-8888-7777--8-10-8-7-8-7-5-7------|

Again...
|--------------------------------------------|
|--------------------------------------------|
|--------------------------------------------|
|--------------------------------------------|
|--------------------------------------------|
|------------------------------8888-7777-----|
|--00000000-8888-7777-55555555---------------|

|------------------------------------------------|
|------------------------------------------------|
|------------------------------------------------|
|------------------------------------------------|
|------------------------------------------------|
|---------------------7777-10101010-8888-7777----|
|--00000000-8888-7777----------------------------|

|--------------------------------------------|
|--------------------------------------------|
|--------------------------------------------|
|--------------------------------------------|
|--------------------------------------------|
|------------------------------8888-7777-----|
|--00000000-8888-7777-55555555---------------|

|--------------------------------------------|
|--------------------------------------------|
|--------------------------------------------|
|--------------------------------------------|
|--------------------------------------------|
|----------------------8-10-8-7-8-7-5-7------|
|--00000000-8888-7777--8-10-8-7-8-7-5-7------|

Then the best part!
|---------------------------------------------------------------------|
|---------------------------------------------------------------------|
|---------------------------------------------------------------------|
|------------------------------------------------5~-------------------| (2x)
|----------7-------------------------------7----------------5---------|
|------8-----8---5---------------------8-----8--------8---8-----7-----|
|--0-0---0-----0----00-000-00-000--0-0---0-----0----0---0-----0-------|

Harmony of it...
|---------------------------------------------------------------------|
|---------------------------------------------------------------------|
|---------------------------------------------------------------------|
|----------5-------------------------------5-----8~-------------------| (2x)
|------6-----6-------------------------6-----6--------6---6-8---5-----|
|----------------8----------------------------------------------------|
|--0-0---0-----0----00-000-00-000--0-0---0-----0----0---0-----0-------|

Breakdown
|-----------------------------------------------------------------------|
|-----------------------------------------------------------------------|
|-----------------------------------------------------------------------|
|-----------------------------------------------------------------------| 2x
|-----------------------------------------------------------------------|
|--000-000--000-0--000-000-000-000--000-000--000-0--000-000-------------|
|--000-000--000-0--000-000-000-000--000-000--000-0--000-000--11111111---|

Breakdown
|-----------------------------------------------------------------|
|-----------------------------------------------------------------|
|-----------------------------------------------------------------|
|-----------------------------------------------------------------| (2x)
|-----------------------------------------------------------------|
|--0-0-0-0--00-00-0--00-------------0-0-0-0--00-00-0--00-2~-1~----|
|--1-1-1-1--11-11-1--11--3-1-3-1-3--1-1-1-1--11-11-1--11-3~-2~----|

Fast riff
|----------------------------------------------|
|----------------------------------------------|
|---------------------------2222-5555-4444-----|
|-------2222-5555-4444-2222--------------------| (2x)
|--2222----------------------------------------|
|----------------------------------------------|
|----------------------------------------------|

|----------------------------------------------|
|----------------------------------------------|
|----------------------------------------------|
|------------5555-4444-2222-1111-2222-4444-----|
|-------2222-----------------------------------|
|--0000----------------------------------------|
|----------------------------------------------|

|----------------------------------------------|
|----------------------------------------------|
|----------------------------------------------|
|------------5555-4444------------4444-5555----|
|-------2222-----------------2222--------------|
|--3333-----------------2222-------------------|
|----------------------------------------------|

Once again...
|----------------------------------------------|
|----------------------------------------------|
|---------------------------2222-5555-4444-----|
|-------2222-5555-4444-2222--------------------| (2x)
|--2222----------------------------------------|
|----------------------------------------------|
|----------------------------------------------|

|----------------------------------------------|
|----------------------------------------------|
|----------------------------------------------|
|------------5555-4444-2222-1111-2222-4444-----|
|-------2222-----------------------------------|
|--0000----------------------------------------|
|----------------------------------------------|

|----------------------------------------------|
|----------------------------------------------|
|----------------------------------------------|
|------------5555-4444------------4444-5555----|
|-------2222-----------------2222--------------|
|--3333-----------------2222-------------------|
|----------------------------------------------|

This riff 2x
|--------------------------------------------------------------------------|
|--------------------------------------------------------------------------|
|--------------------------------------------------------------------------|
|--------------------------------------------------------------------------|
|--------------------------------------------------------------------------|
|------7---8---7--------5---7---5--------7---8---7----10---8---7---7h8p7---|
|--0-0---0---0---0--6-6---6---6---6--7-7---7---7---7-----7---7---7---------|

Play 2x
|-------------------------------------------------------------------------|
|-------------------------------------------------------------------------|
|-------------------------------------------------------------------------|
|-------------------------------------------------------------------------|
|-------------------------------------------------------------------------|
|------------------------------------0000000000000000---------------------|
|--0000000000000000-6666666666666666------------------22222222-33333333---|

Sick riff
|--------------------------------------------------------------------------|
|--------------------------------------------------------------------------|
|--------------------------------------------------------------------------|
|-----------------------------------------------------00000000-------------|
|-----------3-----------3-------2--33333333-2222-3333----------44444444----|
|--000-000--5--000-000--5--0-0--4------------------------------------------|
|--000-000-----000-000-----0-0---------------------------------------------|

|--------------------------------------------------------------------------|
|--------------------------------------------------------------------------|
|--------------------------------------------------------------------------|
|--------------------------------------------------------------------------|
|-----------3-----------3-------2------------------------------------------|
|--000-000--5--000-000--5--0-0--4------------------------------------------|
|--000-000-----000-000-----0-0-----55555555-3333-5555-33333333-22222222----|

Once again
|--------------------------------------------------------------------------|
|--------------------------------------------------------------------------|
|--------------------------------------------------------------------------|
|-----------------------------------------------------00000000-------------|
|-----------3-----------3-------2--33333333-2222-3333----------44444444----|
|--000-000--5--000-000--5--0-0--4------------------------------------------|
|--000-000-----000-000-----0-0---------------------------------------------|

|--------------------------------------------------------------------------|
|--------------------------------------------------------------------------|
|--------------------------------------------------------------------------|
|--------------------------------------------------------------------------|
|-----------3-----------3-------2------------------------------------------|
|--000-000--5--000-000--5--0-0--4------------------------------------------|
|--000-000-----000-000-----0-0-----55555555-3333-5555-33333333-22222222----|

Outro Breakdown
|-----------------------------------------------------------------------|
|-----------------------------------------------------------------------|
|-----------------------------------------------------------------------|
|-----------------------------------------------------------------------| 4x
|-----------------------------------------------------------------------|
|--000-000--000-0--000-000-000-000--000-000--000-0--000-000-------------|
|--000-000--000-0--000-000-000-000--000-000--000-0--000-000--11111111---|

Ending
|-----------|
|-----------|
|-----------|
|-----------|
|--0--------|
|--0--------|
|--0--------|





Comments


Popular Carnifex tabs & chords
Entombed Monarch Intro Tabs
Hell Chose Me 1 Tabs
Hope Dies With The Decadent Tabs
In Coalesce With Filth And Faith 2 Tabs
Lie To My Face 1 Tabs
Names Mean Nothing 1 Tabs
Sadistic Embrace Tabs
Slit Wrist Savior Tabs
The Diseased And The Poisoned Intro Tabs
The Liars Funeral Intro Tabs


Song lyrics



↑ Back to top | Tablatures and chords are parodies/interpretations of the original songs. You may use it for private study, scholarship, research or language learning purposes only
© 2014 AZChords.com Contact us | Privacy policy | DMCA | Add/correct tabs | Request tabs | Top 50 tabs