>
 >
Mythomania

Mythomania Guitar Tabs

Carnal Grief - Mythomania chords, tabs, tablatures, lyrics

Guitar lessons | Add/correct | Request | Top 50 tabs Artists:  A B C D E F G H I J K L M N O P Q R S T U V W X Y Z 0-9

Mythomania Guitar Tabs – Carnal Grief

CD, Sheet music, Poster

Do you like Mythomania? Share with your friends now
Tabs
#This OLGA file is the author's own work and represents their interpretation  #
#research. Remember to view this file in Courier, or some other monospaced    #


                        Mythomania
                  Performed By Carnal Grief
                 Words/Music: Johan Lindgren

Intro:
|---------------------------------|
|---------------------------------|
|---------------------------------|
|-------4/3-----------------------|
|-4/5---2/1---4/5-----------------|
|-2/3-0-----0-2/3-0-000-0-000-000-|

Vers:
|-----------------------------------------------------------------|
|-----------------------------------------------------------------|
|-----------------------------------------------------------------|
|-------4/3-----------------------------4/3-----------4-----------|
|-4/5---2/1---4/5-2---------------4/5---2/1---4/5-----6-----------|
|-2/3-0-----0-2/3-0---------------2/3-0-----0-2/3-----------------|

|-----------------------------------------------------------------|
|-----------------------------------------------------------------|
|-----------------------------------------------------------------|
|-------4/3-----------------------------4/3-----------------------|
|-4/5---2/1---4/5-3---------------4/5---2/1---4/5-----------------|
|-2/3-0-----0-2/3-1---------------2/3-0-----0-2/3-0-000-0-000-000-|
(/ \ / \ / \ / \ / \ / \ / \ / \ / \ / \ / \ / \ / \ / \ / \ / \ /)
|-----------------------------------------------------------------|
|-----------------------------------------------------------------|
|-----------------------------------------------------------------|
|-------4/3-------7---------------------4/3-----------------------|
|-4/5---2/1---4/5-8---------------4/5---2/1---4/5-----------------|
|-2/3-0-----0-2/3-----------------2/3-0-----0-2/3-0-000-0-000-000-|

Chorus:
|-----------------------------------------------------------------|
|-----------------------------------------------------------------|
|-----------------------------------------------------------------|
|-------------------------------------------------4-----3-----5---|
|-2---------------7-----7-----6-7-3---------------2-----1-----3---|
|-0-----------------0-0---0-0-----1-------------------------------|
(/ \ / \ / \ / \ / \ / \ / \ / \ / \ / \ / \ / \ / \ / \ / \ / \ /)
|-----------------------------------------------------------------|
|-----------------------------------------------------------------|
|-----------------------------------------------------------------|
|-----------------5-----5-----4-5-3-----3-----2-3-4-----3-----5---|
|-2-----------------2-2---3-3-------3-3---3-3-----2-----1-----3---|
|-0---------------------------------------------------------------|

Stick Part 1:
|-----------------------------------------------------------------|
|-----------------------------------------------------------------|
|-----------------------------------------------------------------|
|-----------------------------------------------------------------|
|-5-----------4---2---------------5-----------4---7---------------|
|-3-----------2---0---------------3-----------2---5---------------|

Stick Part 2:
|-----------------------------------------------------------------|
|-----------------------------------------------------------------|
|---------------------------5-------------------------------------|
|---------------------4---4---4-----------------------9-----9-----|
|---5-6---5-6---4---2---2-------2---5-6---5-6---4---7-----7---7---|
|-3-----3-----2---0---------------3-----3-----2---5-----5-------5-|

Solo:
|-------------------------12-12-12-12---101210-8108-787-575-454-1-|
|-----------------6---5-------------------------------------------|
|-----------------------------------------------------------------|
|-------------6-7-------------------------------------------------|
|-------5-7-8-----------------------------------------------------|
|-5-7-8-----------------------------------------------------------|

|/5-----------8---7---------8/10--8---7---------------------------|
|---------------------------------------10--8---7-----------------|
|---------------------------------------------------9-8-----------|
|-----------------------------------------------------------------|
|-----------------------------------------------------------------|
|-----------------------------------------------------------------|

|-121514151215141511141214111412141215141512151415171514--1415----|
|-------------------------------------------------------17----16--|
|-----------------------------------------------------------------|
|-----------------------------------------------------------------|
|-----------------------------------------------------------------|
|-----------------------------------------------------------------|

|-----------------------------------------------------------------|
|-----------------------------------------------------------------|
|-161314--13--------------------------------------------------1314|
|-------15--14151214--12--------------------121415------121415----|
|-------------------15--1415121411--11121415------121415----------|
|---------------------------------13------------------------------|

Ending:
|-----------------------------------------------------------------|
|-----------------------------------------------------------------|
|-----------------------------------------------------------------|
|-----------------4-----3-----5-------------------4-----3-----5---|
|-----------------2-----1-----3-------------------2-----1-----3---|
|-0-000-0-000-000-----------------0-000-0-000-000-----------------|

|-----------------------------------------------------------------|
|-----------------------------------------------------------------|
|-----------------------------------------------------------------|
|-----------------4-----3-----5-----------------------------------|
|-----------------2-----1-----3-------------------2---------------|
|-0-000-0-000-000-----------------0-000-0-000-000-0---------------|

How To Play It:

Intro : 1 Time
Vers : 4 Times
Chorus : 2 Times
Vers : 4 Times
Chorus : 2 Times
Stick Part 1 : 2 Times
Stick Part 1 + 2 : 6 Times
Solo (Vers : 4 Times)
Chorus : 2 Times
Ending : 1 Time





Comments


Popular Carnal Grief tabs & chords
Embraced By The Light Tabs
Epitaph Tabs
Reflections Of The Past Tabs
The Hate That Dwells Within Tabs


Song lyrics



↑ Back to top | Tablatures and chords are parodies/interpretations of the original songs. You may use it for private study, scholarship, research or language learning purposes only
© 2014 AZChords.com Contact us | Privacy policy | DMCA | Add/correct tabs | Request tabs | Top 50 tabs