» » »

Just A Step Away Tabs (ver.1)

Artists:  A B C D E F G H I J K L M N O P Q R S T U V W X Y Z # 

Just A Step Away Tabs (ver.1)

Carly Rae Jepsen
Rating:
0/5 (0 votes)

Hard to play? Try these video lessons and learn fast.
                -----------------------------------------------------------------------------
-----------------------------------------------------------------------------
                                                              Keenan Wright        

Tuning: Standard, Capo 1

     Intro/Verse:

                  
e|--------|--------|--------|--------|
B|--------|--------|--------|--------|
G|------2-|------4-|------7-|------6-|      x4
D|----0---|----0---|----0---|----0---|
A|--------|--------|--------|--------|
E|0^2-----|0^3-----|0^7-----|0^5-----|
  
     Chorus:

e|--------|--------|--------|--------|
B|--------|--------|--------|--------|
G|-----11-|------4-|------7-|------6-|      x4
D|----0---|----0---|----0---|----0---|
A|--------|--------|--------|--------|
E|0^10----|0^3-----|0^7-----|0^5-----|
            
Hard to play? Try these video lessons and learn fast. | Correct




comments powered by Disqus
↑ Back to top | Tablatures and chords are parodies/interpretations of the original songs. You may use it for private study, scholarship, research or language learning purposes only