» » »

Carly Rae Jepsen, Good Time Tabs (ver.1)

Artists:  A B C D E F G H I J K L M N O P Q R S T U V W X Y Z # 

Good Time Tabs (ver.1)

Carly Rae Jepsen Tabs
 Rating:
4/5 (4 votes)
Good Time lessons Tabs too difficult? Try these video lessons and learn fast
                Titel: Good times
Key: Eb

READ THIS FIRST!
The most of this song is plyed by synths, therefore no exact guitar tab can be made.
All tabbed things are just suggestions of how you can play to make it to sound like 
the original track. Personally I like to play those syncopes at the 2nd and 4th chords
(and sometimes just at the 2nd chord),of course you can do what you think sounds best ;)!

If you DON'T want to put time in reading all this sh*t, just play four chord (Ab Eb Bb Cm)
trough the whole song and take a look att the Leads.

                     INTRO

Ab6        Eb   (Eb6 Eb Eb6)Bb       Cm       Cm7 Cm
e|x--x--x--x--|x--x--x--x--|x--x--x--x--|x--x--x--x--|
B|6--6--6--8--|8--8--8--8--|6--6--6--8--|8--8--8--8--|
G|5--5--5--8--|8--8--8--8--|7--7--7--8--|8--8--8--8--|    x3
D|6--6--6--8--|8--10-8--10-|8--8--8--10-|10-10-8--10-|
A|6--6--6-(6)-|6)(6)(6)(6)-|8--8--8--10-|10-10-10-10-|
E|x--x--x--x--|x--x--x--x--|x--x--x--x--|x--x--x--x--|


Here the the "Owl City-saw lead" comes the first time (over the chords below)

e|------------|------------|------------|in-this-bar-|
B|9--8--6-----|---6--------|------------|the-bass-tab|(= octava down)  
G|---------8--|------8-----|(8)---------|is-written--|  
D|------------|8-----------|------------|------5--8--|
A|------------|------------|------------|---6--------|
E|------------|------------|------------|------------|
Ab6       Eb6 Eb           Bb       Cm                         x1

e|x--x--x--x--|x--x--x--x--|x--x--x--x--|------------|
B|6--6--6--8--|8--8--8--8--|6--6--6--8--|------------|
G|5--5--5--8--|8--8--8--8--|7--7--7--8--|------------|   
D|6--6--6--8--|8--10-8--10-|8--8--8--10-|------------|
A|6--6--6-(6)-|6)(6)(6)(6)-|8--8--8--10-|------------|
E|x--x--x--x--|x--x--x--x--|x--x--x--x--|------------|



Alternative Intro (The 1st and 3rd chord changes on 2&)
Ab6        Eb              Bb        Cm
e|x--x--x--x--|x--x--x--x--|x--x--x--x--|x--x--x--x--|
B|6--6--6--8--|8--8--8--8--|6--6--6--8--|8--8--8--8--|
G|5--5--5--8--|8--8--8--8--|7--7--7--8--|8--8--8--8--| x 4 (minus one bar)
D|6--6--6--8--|8--8--8--8--|8--8--8--10-|10-10-10-10-|
A|6--6--6--6--|6--6--6--6--|8--8--8--10-|10-10-10-10-|
E|x--x--x--x--|x--x--x--x--|x--x--x--x--|x--x--x--x--|

-------------------------------------------------------------

            VERSE 1 (almost the same as Alt intro)

Ab6        Eb              Bb            Cm
e|x--x--x--x--|x--x--x--x--|x--x--x--x--|x--x--x--x--|      (5th time the     
B|6--6--6--8--|8--8--8--8--|6--6--6--6--|8--8--8--8--|       Bass riff is 
G|5--5--5--8--|8--8--8--8--|7--7--7--7--|8--8--8--8--| x 8   played in the 
D|6--6--6--8--|8--8--8--8--|8--8--8--8--|10-10-10-10-|       last bar.8th
A|6--6--6--6--|6--6--6--6--|8--8--8--8--|10-10-10-10-|       time the Lead 
E|x--x--x--x--|x--x--x--x--|x--x--x--x--|x--x--x--x--|       thing is played)


   Bridge 1(Goodmorning and Goodnight)

Synth lead (is plyed over the chords below)
This one is also played over the Choruses!

e|11--11--11--11--|10--10--11--11--|
B|--11--11--11--11|--11--11--11--11| x3
G|----------------|----------------|

e|11--11--11--11--|10--10----------|
B|--11--11--11--11|--11--11--------| x1
G|----------------|----------------|


Ab6        Eb           Bb           Cm
e|x--x--x--x--|x--x--x--x--|x--x--x--x--|x--x--x--x--|
B|6--6--6--8--|8--8--8--6--|6--6--6--8--|8--8--8--8--|
G|5--5--5--8--|8--8--8--7--|7--7--7--8--|8--8--8--8--| x 3 
D|6--6--6--8--|8--8--8--8--|8--8--8--10-|10-10-10-10-|
A|6--6--6--6--|6--6--6--6--|8--8--8--10-|10-10-10-10-|
E|x--x--x--x--|x--x--x--x--|x--x--x--x--|x--x--x--x--|

Ab6        Eb           Bb           Cm
e|x--x--x--x--|x--x--x--x--|x--x--x--x--|------------|
B|6--6--6--8--|8--8--8--6--|6--6--6--8--|------------|
G|5--5--5--8--|8--8--8--7--|7--7--7--8--|------------| x 1 
D|6--6--6--8--|8--8--8--8--|8--8--8--10-|------------|
A|6--6--6--6--|6--6--6--6--|8--8--8--10-|------------|
E|x--x--x--x--|x--x--x--x--|x--x--x--x--|------------|


       Chorus 1 (same as verse)

Ab6        Eb              Bb            Cm
e|x--x--x--x--|x--x--x--x--|x--x--x--x--|x--x--x--x--|    
B|6--6--6--8--|8--8--8--8--|6--6--6--6--|8--8--8--8--|     plus 2 extra
G|5--5--5--8--|8--8--8--8--|7--7--7--7--|8--8--8--8--| x 4 times (2 Last
D|6--6--6--8--|8--8--8--8--|8--8--8--8--|10-10-10-10-|     times as an intro
A|6--6--6--6--|6--6--6--6--|8--8--8--8--|10-10-10-10-|     to next verse)    
E|x--x--x--x--|x--x--x--x--|x--x--x--x--|x--x--x--x--|


Verse 2

Ab6        Eb              Bb            Cm
e|x--x--x--x--|x--x--x--x--|x--x--x--x--|x--x--x--x--|
B|6--6--6--8--|8--8--8--8--|6--6--6--6--|8--8--8--8--|
G|5--5--5--8--|8--8--8--8--|7--7--7--7--|8--8--8--8--| x 4 ( 4th time, the  
D|6--6--6--8--|8--8--8--8--|8--8--8--8--|10-10-10-10-|    lead is played)   
A|6--6--6--6--|6--6--6--6--|8--8--8--8--|10-10-10-10-|      
E|x--x--x--x--|x--x--x--x--|x--x--x--x--|x--x--x--x--|


Brigde 2(exactly the same as last time)

Chorus 2 (exactly the same as last time, except from the extras)  x2

Stick (same as Verse 2 above)

Chorus 3 (same as Chorus 2)

Outro/Children Choir (play the intro again)


If you got corrections, post them :)
            
Submit corrections

comments powered by Disqus
↑ Back to top | Carly Rae Jepsen Tabs for Good Time. Lyrics for acoustic guitar and electric guitar. Tablatures and chords are parodies/interpretations of the original songs. You may use it for private study, scholarship, research or language learning purposes only