» » »

Call Me Maybe Bass tabs (ver.3)

Artists:  A B C D E F G H I J K L M N O P Q R S T U V W X Y Z # 

Call Me Maybe Bass tabs (ver.3)

Carly Rae Jepsen
Rating:
0/5 (0 votes)

Tabs too difficult? Try these video lessons and learn fast.
                -------------------------------------------------------------------------------
                             CALL ME MAYBE - Carly Rae Jepsen
-------------------------------------------------------------------------------

Tuning: Standard E A D G

Verse "Your stare was holding..."
G|----------------------------|
D|----------------------------|
A|----3~----------3~----5~----|
E|----------3~----------------|

Chorus (x4)
G|------------------------------------|
D|---------5--------5--------5--------|
A|----3------5-5------3-3------5-5----|
E|------------------------------------|

Verse 2 A (x2)
G|----------------------------|
D|----------------------------|
A|----3~----------3~----5~----|
E|----------3~----------------|

Verse 2 B 
G|----------------------------------|
D|----------------------------------|
A|----3(x8)---------3(x8)--5(x8)----|
E|-----------3(x8)------------------|

Chorus 2 (x6)
G|------------------------------------|
D|---------5--------5--------5--------|
A|----3------5-5------3-3------5-5----|
E|------------------------------------|

Bridge (x2)
G|------------------------------------|
D|---------5--------5--------5--------|
A|----3------5-5------3-3------5-5----|
E|------------------------------------|

Chorus 3 (x4)
G|------------------------------------|
D|---------5--------5--------5--------|
A|----3------5-5------3-3------5-5----|
E|------------------------------------|

Here are the basic notes to the song.
Verse: C G C D
Chorus: C GDD GCC GDD


| /  slide up
| \  slide down
| h  hammer-on
| p  pull-off
| ~  vibrato
| +  harmonic
| x  Mute note
===============================================================================
            
Tabs too difficult? Try these video lessons and learn fast.




comments powered by Disqus
↑ Back to top | Tablatures and chords are parodies/interpretations of the original songs. You may use it for private study, scholarship, research or language learning purposes only