» » »

Call Me Maybe Tabs (ver.2)

Artists:  A B C D E F G H I J K L M N O P Q R S T U V W X Y Z # 

Call Me Maybe Tabs (ver.2)

Carly Rae Jepsen
Rating:
5/5 (2 votes)

Hard to play? Try these video lessons and learn fast.
                This is a tab of sorts to the song by Carly
Rae Jepsen's Call Me Maybe. It is the vocal part with each note 
denoting a word in the lyrics. Enjoy!

VERSE
e-------------------------------------------------------------|
B-------------------------------------------------------------|
G---------------------------------------------------------7---|
D-9-9-9-9-9-7-9---9-9-9-9-9-7-9---9-9-9-9-9-7-7---7-7-5-5---9-| x2
A-------------------------------------------------------------|
E-------------------------------------------------------------|

I threw a wish in the well, Don't ask me, I'll never tell I looked to you as it 
fell, and now you're in my way.

I trade my soul for a wish, pennies and dimes for a kiss I wasn't looking for 
this, but now you're in my way


BRIDGE
e--------------------------------------------------7----------|
B-----------------------------------8-8-8-8-8-8-10------------|
G-7-7-------7-7-7-------7-7-7---------------------------------|
D-----9-7-5-------9-7-5-------9-7-5---------------------------| 
A-------------------------------------------------------------|
E-------------------------------------------------------------|

Your stare was holdin', Ripped jeans, skin was showin' Hot night, wind was blowin' 
Where you think you're going, baby?


CHORUS
e------------------7------7-8-7----7---------|
B-8-----8------------8--8-------8----10-10-8-|
G-----7---7------7---------------------------|
D---9--------9-9-----------------------------| x3
A--------------------------------------------|
E--------------------------------------------|

e------------------7------7-8-7----7---------|
B-8-----8-8----------8--8-------8----10-10-8-|
G-----7-----7----7---------------------------|
D---9----------9-----------------------------| x1
A--------------------------------------------|
E--------------------------------------------|

Hey, I just met you, and this is crazy, but here's my number, so call me, maybe?
It's hard to look right, at you baby, but here's my number, so call me, maybe?
Hey, I just met you, and this is crazy, but here's my number, so call me, maybe?
And all the other boys, try to chase me, but here's my number, so call me, maybe?
            
Hard to play? Try these video lessons and learn fast. | Correct




comments powered by Disqus
↑ Back to top | Tablatures and chords are parodies/interpretations of the original songs. You may use it for private study, scholarship, research or language learning purposes only