» » »

Beautiful Tabs (ver.2)

Artists:  A B C D E F G H I J K L M N O P Q R S T U V W X Y Z # 

Beautiful Tabs (ver.2)

Carly Rae Jepsen
Rating:
0/5 (0 votes)

Tabs too difficult? Try these video lessons and learn fast.
                =====================================================================
=========== Carly Rae Jepsen & Justin Bieber - Beautiful ============
=======================("Kiss" Album Version)========================
=====================================================================

My first tab so hopefully it's alright! Not quite worked out the bridge section 
yet, I'll edit if I do.

Capo on 6 - all tabs relative to Capo

Chords used:
     D   A   D1  D2  G
e|---2---0---x---x---3---|
B|---3---2---3---3---3---|
G|---2---2---2---2---0---|
D|---0---2---0---0---0---|
A|---0---0---2---0---2---|
E|---0---0---x---2---3---|

Intro & Verse - Phrase 1:
e|-----------------------------------------------------------------------|
B|----3---3-----2---2-----2---2----2---2---2---2---2---2---2---2---2---2-|
G|----2---2-----2---2-----3---3----3---3---3---3---3---3---2---2---2---2-|
D|--0---0----------------------------------------------------------------|
A|------------4---4-----2---2--------------------------------------------|
E|-------------------------------2---2---3---3---3---3---3---3---3---3---|

Phrase 2 - this is added at the end of some choruses:
e|--------------|
B|--2-3-5-7-10--|
G|--2-2---------|
D|--------------|
A|--------------|
E|--------------|

Verse (Carly's) - Phrase 1
--------------------------
I know, I know it's been a while
I wonder where you are, and if you think of me
Sometimes, 'cause you're always on my mind
You know I had it rough, trying to forget you but
The more that I look around, the more I realize
You're all i'm looking for

Chorus - strum chords jauntily
-------------------------------
   D               A            D1                 D2            G       A
What makes you so beautiful, is you don't know how beautiful you are to me
   D                    A
You're not trying to be perfect
D1        D2              G         A   
Nobody's perfect, but you are, to me
D                  A              D1
It's how you take my breath away
     D2                     G
Feel the words that I don't say
  Phrase 2                           D      A
I wish somehow, I could say them now
 
Oh, oh, I could say them now, yeah

Verse (Justin's) - continue chords or Phrase 1
----------------------------------------------
Just friends, the beginning or the end?
How do we make sense
When we're on our own
It's like you're the other half of me
I feel incomplete, I should've known
Nothing in the world compares to the feelings that we share
So not fair

Chorus - same chords
--------------------
What makes you so beautiful, is you don't know how beautiful you are to me
You're not trying to be perfect
Nobody's perfect, but you are, to me
You try to take my breath away
Feel the words that I don't say
I wish somehow, I could say them now

Bridge - might require a bit of trial and error
----------------------------------------------
Oh, it's not you, blame it all on me
I was running from myself
Cause I couldn't tell how deep that we
We were gonna be
I was scared it's destiny, but it hurts like hell
Hope it's not too late, just a twist of faith

Chorus - same chords
--------------------
What makes you so beautiful, is you don't know how beautiful you are to me
You're not trying to be perfect
Nobody's perfect, but you are, to me
It's how you take my breath away
Feel the words that I don't say
I wish somehow, I could say them now
Oh, oh, I could say them now, mmm
            
Tabs too difficult? Try these video lessons and learn fast.


comments powered by Disqus
↑ Back to top | Tablatures and chords are parodies/interpretations of the original songs. You may use it for private study, scholarship, research or language learning purposes only