>
 >
White Houses

White Houses Guitar Tabs

Carlton Vanessa - White Houses chords, tabs, tablatures, lyrics

Guitar lessons | Add/correct | Request | Top 50 tabs Artists:  A B C D E F G H I J K L M N O P Q R S T U V W X Y Z 0-9

White Houses Guitar Tabs – Carlton Vanessa

CD, Sheet music, Poster

Do you like White Houses? Share with your friends now
ChordsTabs
White Houses Tab by Vanessa Carlton


1--------------------------|
2--1---1---1---1---1---1---|
3--------------------------|
4--------------------------|
5--3---3---3---3---3---3---|
6--------------------------|
                           
Verse I:


1---------------------------------------|
2-----1---1---1---1---1---1---1---1---1-|
3---------------------------------------|
4---------------------------------------|
5--3---3---3---3---3---3---3---3---3----|
6---------------------------------------|
  Crashed on the floor when I moved in
  This bungalow alone with some strange new friends


1---------------------------------------|
2-----1---1---1---1---1---1---1---1---1-|
3---------------------------------------|
4---------------------------------------|
5--2---2---2---2---2---2---2---2---2----|
6---------------------------------------|
  Stay up too late, and I'm too thin 
  We promise each other it's til the end 

1---------------------------------------|
2---------------------------------------|
3-----2---2---2---2---2---2---2---2---2-|
4---------------------------------------|
5---0---0---0---0---0---0---0---0---0---|
6---------------------------------------|
   Now we're spinning empty bottles it's the five of us 
   With pretty eyed boys girls die to trust   

1---------------------------------------|
2---------------------------------------|
3-----0---0---0---0---0---0---0---0---0-|
4---------------------------------------|
5---------------------------------------|
6---3---3---3---3---3---3---3---3---3---|
   I can't resist the day 
   No, I can't resist the day

Verse II:


1---------------------------------------|
2-----1---1---1---1---1---1---1---1---1-|
3---------------------------------------|
4---------------------------------------|
5--3---3---3---3---3---3---3---3---3----|
6---------------------------------------|
  Jenny screams out and it's no pose
  'Cause when she dances she goes and goes


1---------------------------------------|
2-----1---1---1---1---1---1---1---1---1-|
3---------------------------------------|
4---------------------------------------|
5--2---2---2---2---2---2---2---2---2----|
6---------------------------------------|
  Beer through the nose on an inside joke 
  I'm so excited, I haven't spoken 

1---------------------------------------|
2---------------------------------------|
3-----2---2---2---2---2---2---2---2---2-|
4---------------------------------------|
5---0---0---0---0---0---0---0---0---0---|
6---------------------------------------|
   And she's so pretty, and she's so sure
   Maybe I'm more clever than a girl like her  

1---------------------------------------|
2---------------------------------------|
3-----0---0---0---0---0---0---0---0---0-|
4---------------------------------------|
5---------------------------------------|
6---3---3---3---3---3---3---3---3---3---|
   The summer's all in bloom 
   The summer is ending soon 

        
Chorus I:

      F              Am           G       F  
1-----1--------------0------------3-------1---------|
2-----1--------------1------------0-------1---------|
3-----2--------------2------------0-------2---------|
4-----3--------------2------------0-------3---------|
5-----3--------------0------------2-------3---------|
6-----x--------------x------------3-------x---------|
It's alright and it's nice not to be so alone
              But I hold         on to your secrets 


1---3---------0-----2--------|
2---1---------1-----2--------|
3---0---------0-----0--------|
4---2---------0-----x--------|
5---3---------0-----2--------|
6-------------------3--------|

In white     hou   ses



Verse III:

1-------------------|
2--1---1---1---1----|
3-------------------|
4-------------------|
5--3---3---3---3----|
6-------------------|


1---------------------------------------|
2-----1---1---1---1---1---1---1---1---1-|
3---------------------------------------|
4---------------------------------------|
5--3---3---3---3---3---3---3---3---3----|
6---------------------------------------|
  Maybe I'm a little bit over my head
  I come undone at the things he said 


1---------------------------------------|
2-----1---1---1---1---1---1---1---1---1-|
3---------------------------------------|
4---------------------------------------|
5--2---2---2---2---2---2---2---2---2----|
6---------------------------------------|
  And he's so funny in his bright red shirt
  We were all in love and we all got hurt 

1---------------------------------------|
2---------------------------------------|
3-----2---2---2---2---2---2---2---2---2-|
4---------------------------------------|
5---0---0---0---0---0---0---0---0---0---|
6---------------------------------------|
   I sneak into his car's black leather seat 
   The smell of gasoline in the summer heat

1---------------------------------------|
2---------------------------------------|
3-----0---0---0---0---0---0---0---0---0-|
4---------------------------------------|
5---------------------------------------|
6---3---3---3---3---3---3---3---3---3---|
   Boy, we're going way too fast 
   It's all too sweet to last 



Chorus II:

      F              Am           G           F  
1-----1--------------0------------3-----------1---------|
2-----1--------------1------------0-----------1---------|
3-----2--------------2------------0-----------2---------|
4-----3--------------2------------0-----------3---------|
5-----3--------------0------------2-----------3---------|
6-----x--------------x------------3-----------x---------|
It's alright and I put my        self in his hands
              But I hold         on to your secrets in 


1---3---------0-----2--------|
2---1---------1-----2--------|
3---0---------0-----0--------|
4---2---------0-----x--------|
5---3---------0-----2--------|
6-------------------3--------|

   white     hou   ses


      F              Am           G           F  
1-----1--------------0------------3-----------1---------|
2-----1--------------1------------0-----------1---------|
3-----2--------------2------------0-----------2---------|
4-----3--------------2------------0-----------3---------|
5-----3--------------0------------2-----------3---------|
6-----x--------------x------------3-----------x---------|
     Love, or   something     ignites in my veins 
              And I pray it     never      fades   


1---3---------0-----2--------|
2---1---------1-----2--------|
3---0---------0-----0--------|
4---2---------0-----x--------|
5---3---------0-----2--------|
6-------------------3--------|

In white     hou   ses


Bridge:

      F              Am           G           F  
1-----1--------------0------------3-----------1---------|
2-----1--------------1------------0-----------1---------|
3-----2--------------2------------0-----------2---------|
4-----3--------------2------------0-----------3---------|
5-----3--------------0------------2-----------3---------|
6-----x--------------x------------3-----------x---------|
       My             first          time,       hard to explain


           Am           G           F  
1----------0------------3-----------1---------|
2----------1------------0-----------1---------|
3----------2------------0-----------2---------|
4----------2------------0-----------3---------|
5----------0------------2-----------3---------|
6----------x------------3-----------x---------|
              Rush of blood, oh, and a little bit of pain

           Am           G           F  
1----------0------------3-----------1---------|
2----------1------------0-----------1---------|
3----------2------------0-----------2---------|
4----------2------------0-----------3---------|
5----------0------------2-----------3---------|
6----------x------------3-----------x---------|
             On a cloudy day,         it's more common than you think

           Am           G           F  
1----------0------------3-----------1---------0-----|
2----------1------------0-----------1---------1-----|
3----------2------------0-----------2---------0-----|
4----------2------------0-----------3---------2-----|
5----------0------------2-----------3---------3-----|
6----------x------------3-----------x---------x-----|
             He's       my          first  mistake

Adlib:

1---------------------------------------|
2-----1---1---1---1---1---1---1---1---1-|
3---------------------------------------|  2X
4---------------------------------------|
5--3---3---3---3---3---3---3---3---3----|
6---------------------------------------|
  

1---------------------------------------|
2-----1---1---1---1---1---1---1---1---1-|
3---------------------------------------|  2X
4---------------------------------------|
5--2---2---2---2---2---2---2---2---2----|
6---------------------------------------|


1---------------------------------------|
2---------------------------------------|
3-----2---2---2---2---2---2---2---2---2-|  2X
4---------------------------------------|
5---0---0---0---0---0---0---0---0---0---|
6---------------------------------------|


1---------------------------------------|
2---------------------------------------|
3-----0---0---0---0---0---0---0---0---0-|  2X
4---------------------------------------|
5---------------------------------------|
6---3---3---3---3---3---3---3---3---3---|



1------|
2--1---|
3------| pause
4------|
5--3---|
6------|

   Maybe you were all faster than me

1------|
2--1---| 
3------| pause
4------|
5--2---|
6------|
  We gave each other up so easily 

1------|
2------|
3--2---| pause
4------|
5--0---|
6------|

   These silly little wounds will never mend


1------|
2------|
3--0---| pause
4------|
5------|
6--3---|

   I feel so far from where I've been 


Chorus III:

      F              Am           G           F  
1-----1--------------0------------3-----------1---------|
2-----1--------------1------------0-----------1---------|
3-----2--------------2------------0-----------2---------|
4-----3--------------2------------0-----------3---------|
5-----3--------------0------------2-----------3---------|
6-----x--------------x------------3-----------x---------|
So I go,    and  I  will not be back  here   again
              I'm gone  as   the day   is   fading 


1---3---------0-----2--------|
2---1---------1-----2--------|
3---0---------0-----0--------|
4---2---------0-----x--------|
5---3---------0-----2--------|
6-------------------3--------|

On white     hou   ses


      F              Am           G           F  
1-----1--------------0------------3-----------1---------|
2-----1--------------1------------0-----------1---------|
3-----2--------------2------------0-----------2---------|
4-----3--------------2------------0-----------3---------|
5-----3--------------0------------2-----------3---------|
6-----x--------------x------------3-----------x---------|
   I lie, put my   injuries      all  in  the dust  
              In my heart is the five   of    us   


1---3---------0-----2--------|
2---1---------1-----2--------|
3---0---------0-----0--------|
4---2---------0-----x--------|
5---3---------0-----2--------|
6-------------------3--------|

In  white     hou   ses


      F              Am           G           F  
1-----1--------------0------------3-----------1---------|
2-----1--------------1------------0-----------1---------|
3-----2--------------2------------0-----------2---------|
4-----3--------------2------------0-----------3---------|
5-----3--------------0------------2-----------3---------|
6-----x--------------x------------3-----------x---------|
 And you,  maybe   you'll    remem -ber      me
             What I gave    is   yours   to keep   


1---3---------0-----2------1--|
2---1---------1-----2------1--|
3---x---------x-----x------2--| 3X
4---2---------0-----x------3--|
5---3---------0-----2------3--|
6-------------------3---------|

In  white     hou   ses


1--------|
2---1----|
3--------| 
4--------|
5--------|
6--------|

January 19, 2005

Eden says:
-------------
This tab is dedicated to us because we love playing this song and
we want to share it with you and to all fans of Vannessa Carlton.
This tab is very easy and hope you like it.
If you have comments, suggestions and questions don't hesitate to email us.

Mabuhay Philippines! Good Day!

Ace says:
-------------
We're back. This time, it's a nice song by Vanessa Carlton. I think this one is a good
version, a lot closer to the piano version because it's tabbed instead of pure chords.
It can also be played nicely on a piano/keyboard. 

"You Promised Me Delight" will be heard someday.





Comments


Popular Carlton Vanessa tabs & chords
All I Ask Chords
Paint It Black Chords
Pretty Baby Chords
White Houses Chords
A Thousand Miles Tabs
A Thousand Miles (Intro) Tabs
Afterglow Tabs
Paint It Black Tabs
Pretty Baby Tabs
Twilight Tabs


Song lyrics



↑ Back to top | Tablatures and chords are parodies/interpretations of the original songs. You may use it for private study, scholarship, research or language learning purposes only
© 2014 AZChords.com Contact us | Privacy policy | DMCA | Add/correct tabs | Request tabs | Top 50 tabs