» » »

Carlton Vanessa, Pretty Baby Tabs (ver.1)

Artists:  A B C D E F G H I J K L M N O P Q R S T U V W X Y Z # 

Pretty Baby Tabs (ver.1)

Carlton Vanessa Tabs
 Rating:
4/5 (4 votes)
Pretty Baby lessons Tabs too difficult? Try these video lessons and learn fast
                
Here it is. Took me a while, but here it is.


[INTRO]
                         F#m               Bm            E
E---0-------------------2-------------------------------0--------------|
B-----0-------------------4---------------2---------------2------------|
G-------2-------------------4---------------4---------------2----------|
D---------------------------------------------4---------------1--------|
A---------0-------------------2-----------------3----------------------|
E-----------0-------------------2--------------------------------------|
         "You light..."    "And then I fa-all..."     "for you..."

                         F#m               Bm            E
E-----------------------2-------------------------------0--------------|
B-----0-------------------4---------------2---------------2------------|
G-------2-------------------4---------------4---------------2----------|
D---------------------------------------------4---------------1--------|
A---------0-------------------2-----------------3----------------------|
E-----------0-------------------2--------------------------------------|
         "You lay me..."   "And then I ca-all..."     "for you..."

                         F#m               Bm            D
E-----------------------2----------------------------------------------|
B-----0-------------------4---------------2----------------------------|
G-------2-------------------4---------------4-----------0--------------|
D---------------------------------------------4-----------2------------|
A---------0-------------------2-----------------3-----------3----------|
E-----------0-------------------2-----------------------------2--------|
         "Stumbling..." "reasons that are..."       "few..."

                         F#m               Bm            E
E-----------------------2-------------------------------0--------------|
B-----0-------------------4---------------2---------------2------------|
G-------2-------------------4---------------4---------------2----------|
D---------------------------------------------4---------------1--------|
A---------0-------------------2-----------------3----------------------|
E-----------0-------------------2--------------------------------------|
         "I'd let it..."   "Come down and then..." "some...    you..."



Chords:
A F#m Bm E

A            F#m            Bm      E
You light me up and then I fall for you
A            F#m            Bm      E
You lay me down and then I call for you
A            F#m              Bm      D
Stumbling on reasons that are far and few
A             F#m            Bm           E
I'd let it all come down and then some for you

A           F#m      
Pretty baby don't you leave me
Bm          E
I have been saving smiles for you
A           F#m
Pretty baby why can't you see
Bm             E
You're the one that I belong to
A           F#m
I'll be the embrace that keeps you warm
Bm             E
For you're the sun that breaks the storm
A              F#m 
I'll be alright and I'll sleep sound
Bm         E               A     F#m         Bm-E      
As long as you keep comin' around, oh pretty baby

And I know things can't last forever
But there are lessons that you'll never learn
Oh just the scent of you it makes me hurt (D chord)
So how's it you that makes me better

[chorus]

Why can't you hold me and never let go
When you touch me it is me that you own
Pretty baby oh the place that you hold in my heart
Would you break it apart again... oh pretty baby

[chorus]
            
Submit corrections

comments powered by Disqus
↑ Back to top | Carlton Vanessa Tabs for Pretty Baby. Lyrics for acoustic guitar and electric guitar. Tablatures and chords are parodies/interpretations of the original songs. You may use it for private study, scholarship, research or language learning purposes only