>
 >
Revelations

Revelations Guitar Tabs

Carlos Santana - Revelations chords, tabs, tablatures, lyrics

Guitar lessons | Add/correct | Request | Top 50 tabs Artists:  A B C D E F G H I J K L M N O P Q R S T U V W X Y Z 0-9

Revelations Guitar Tabs – Carlos Santana

CD, Sheet music, Poster

Do you like Revelations? Share with your friends now
Tabs
Revelations........Carlos Santana
                       
       h - hammer on
       p - pull off
       b - bend string up
       r - release bend
       / - slide up
       \ - slide down
       v - vibrato
      qb- quick bend to note indicated
       

 
e----------------------------------------------------------------|
B-12h13r12--------12h13p12------12h13p12------------------5-6----|
G----------9---------------9--------------7/9 9p7-----7----------|
D----------------------------------------------------------------|
A----------------------------------------------------------------|
E----------------------------------------------------------------|

                                
e----------------------------------------------------------------|
B--8h10 ---8h10p8-----------------12h13r12--------12h13r12-------|
G-----------------7/9--7/9vv---------------9---------------9-----|
D----------------------------------------------------------------|
A----------------------------------------------------------------|
E----------------------------------------------------------------|

               
e-----------------------------------------------5----------------|
B--12h13r12/17p15--13qb15--13--10--------------------------------|
G----------------------------------7br5---5--7b----7---5---------|
D--------------------------------------(7)---------------7---5h7v|
A----------------------------------------------------------------|
E----------------------------------------------------------------|

  e---5--7--8--7h8-------7h8p7--7---5--7-------------------------|
B--------------------------------5-------10-8h10v--------7bp5----|
G-------------------------------------------------7/9-9------7---|
D----------------------------------------------------------------|
A----------------------------------------------------------------|
E----------------------------------------------------------------|


e----5-----------------------------------------------------------|
B----------------------------------------10h12h13-12h13--13h15v--|
G-7b8--(7bp5)---7p5h7p5------------------------------------------|
D-----------(7)--------7--5-----------9-10-----------------------|
A---------------------------7--5---8-----------------------------|
E----------------------------------8b----------------------------|
             
            


e------15-12bvvv-*//(0)*------------------------5-----------|
B---15-------------------13b15-10---------------------------|Repeat 
G-12-------------------------------7b8-5---5-7b8--7--5------|From  
D----------------------------------------7-------------7---5|Start
A-----------------------------------------------------------|Once
E-----------------------------------------------------------|

Tempo Increases Rhythm Change


e--------------------10(10)--15--10b12r10b12r10------------------|
B-10h12-13-13-15---10---------------------------10h12-13---------|
G----------------------------------------------------------------|
D----------------------------------------------------------------|
A----------------------------------------------------------------|
E----------------------------------------------------------------|


e---------------------------------------| 
B-----10h12h13-12h13--13h15-------------| x4
G --------------------------------------|
D---------------------------------------|
A---------------------------------------|
E---------------------------------------|


e-12-12-12--15-12-12-----------------12-|
B----------------------15-15-1512-15----|
G---------------------------------------|
D---------------------------------------|
A---------------------------------------|
E---------------------------------------|
  

e-12-------1212--12-----1212-------------------------------|
B-- ---15b-----15b-----15-----12h15-----(15)---------------|
G-------------------------- --------14b15---14-12----------|
D------------------------------------------------14-12h14--|
A----------------------------------------------------------|
E----------------------------------------------------------|


e--12-12-12h13p12 --12-12--10--12--------------------------|
B------------------------10--------------------------------|
G----------------------------------------------------------|
D----------------------------------------------------------|
A----------------------------------------------------------|
E----------------------------------------------------------|



e--------15b17-17p15--17b--15-12---------------------------|
B-------------------------------15p12----------------------|
G------------------------------------14--------------------|
D----------------------------------------------------------|
A----------------------------------------------------------|
E----------------------------------------------------------|



e--12-12-1212h13-----10--10-10--10---12-------------|
B-----------------------------10--------------------|
G---------------------------------------------------|
D---------------------------------------------------|
A---------------------------------------------------|
E---------------------------------------------------|

e---21b22-21b22-21b22-21b22--21b22-22p19-------------------|
B----------------------------------------------------------|
G-------------------------------------------19b21----------|
D--------------------------------------------------1919----|
A----------------------------------------------------------|
E----------------------------------------------------------|

                                                      
e----------------------|
B-17-17h18p15-15h17p12-|
G----------------------|
D----------------------|
A----------------------|
E----------------------|
 

e--------------------------------------------|
B12h13p12------------------------------------|
G--------14---12h14p12---1414----------------|
D----------------------14-----12-------------|
A-------------------------------14b15r14--12-|
E--------------------------------------------|           


e-----------------------------------------------------|
B---------13b15--15p13--------------------------------|
G---------------------14------12----------------------|
D------------------------14b15--14-12-----------------|
A-----------------------------------14b15r14---12-----|
E-----------------------------------------------------|


e-----------------------------------------------------------|
B-----------------------------------------------------------|
G----12------------12-----------12-----14p12---14p12---14p12|
D-14---14p12----14---14p12---14----14-------14------14------|
A-----------12------------14--------------------------------|
E-----------------------------------------------------------|
 


e-----------------5-----------------------|
B---13--10--------------------------------|
G----7br5---5--7b----7---5----------------|
D--------(7)---------------7---5h7v-------|
A-----------------------------------------|
E-----------------------------------------|





Comments


Popular Carlos Santana tabs & chords
Game Of Love Chords
Black Magic Woman 4 Tabs
El Farol Tabs
El Farol 2 Tabs
Feels Like Fire Intro Tabs
Game Of Love Intro Tabs
Sensitive Kind Tabs
Supernatural Bonus Track Tabs
Why Dont You And I Intro 2 Tabs
The Sensitive Kind Ukulele


Song lyrics



↑ Back to top | Tablatures and chords are parodies/interpretations of the original songs. You may use it for private study, scholarship, research or language learning purposes only
© 2014 AZChords.com Contact us | Privacy policy | DMCA | Add/correct tabs | Request tabs | Top 50 tabs