array
(
    
'persuasion' => 'persuasion'
    'carlossantana' 
=> 'carlossantana'
)
Persuasion Tabs (ver. 1) by Carlos Santana @ AZ CHORDS.COM
» » »

Persuasion Tabs (ver.1)

Artists:  A B C D E F G H I J K L M N O P Q R S T U V W X Y Z # 

Persuasion Tabs (ver.1)

Carlos Santana
Rating:
0/5 (0 votes)

Hard to play? Try these video lessons and learn fast.
                persuasion

intro
Fm
--------------------------------------------------------------------------------------------------------|
-[16b18~18~18~18~18~18~18~18~18~18~18~18~18~18-~18~18~18~18~18~18~18~18~18~18~18~18~18~18~18~18]-16b18~-|
--------------------------------------------------------------------------------------------------------|
--------------------------------------------------------------------------------------------------------|
--------------------------------------------------------------------------------------------------------|
--------------------------------------------------------------------------------------------------------|

(riff 1)
Fm                      Bb
(notes in brackets not muted)
-----------------------------------|
-----------------------------------|
-1-1-1-1-(1)--1-1-1-1-1-1-(3)--(1)-|
-3-3-3-3-(3)--3-3-3-3-3-3-(3)--(1)-|
-3-3-3-3-(3)--3-3-3-3-3-3----------|
-----------------------------------|

verses
(w/riff 1)
   Fm                 Bb  Fm                 Bb
(1)you         got        persuasion
(2)yeah oh how you walk now now now baby
(3)oh the spell you put on me is like thunder babe

   i           cant     help my self
   you put in a daze all the time
   i cant keep the rain from coming down

   Abm
   you         got        persuasion
   the look that you got for me baby
   look out now i cant get out from under

   Fm                 Bb  Fm                 Bb
   i           cant     help my self
   like the devil        in disguise
   wouldnt want to even if i can

chorus
C7                  Bb             Ab       G        Gb
something about you baby           keeps me going to somebody else
something about you baby           youre one youre one of a kind
something about you baby           makes me feel like a man

solo 1
--------------------------------1-------------1-----------------------1-4-4-1-|
-4b6------------------------1-4---4b6-----------------------------1-4---------|
-------------3b5r3-1----------------------------3b5r3-3p1---------------------|
----------------------------------------------------------3-------------------|
------------------------------------------------------------------------------|
------------------------------------------------------------------------------|

-1------------------------1-----1-----1-----1-----1-----1-----1-----1-------|
----------------------1-4---4b6---4b6---4b6---4b6---4b6---4b6---4b6---4b6~~-|
---3p1h3-3-1----------------------------------------------------------------|
----------------------------------------------------------------------------|
----------------------------------------------------------------------------|
----------------------------------------------------------------------------|

solo 2
-------------------------------------------------------------------------------|
------------------------------------------8---------8-11-------------13--13-13-|
-3b5------------3b5r3p1-----------8---------8------------13-12----12-----------|
------------------------3------10----------------------------------------------|
-------------------------------------------------------------------------------|
-------------------------------------------------------------------------------|

----13-13-----13---------------13----------13-13-------------13---------13-13-13----|
-13--------------13---------------13-16b18-------13-13-14b16------16b18----------13-|
--------------------13--------------------------------------------------------------|
-----------------------15-----------------------------------------------------------|
------------------------------------------------------------------------------------|
------------------------------------------------------------------------------------|

-------13-------13-13-13----------13-------13-------13-------13-----------------13--------13-------13-------13----|
-14b16----16b18----------13-16b18----16b18----16b18----16b18----16b18-18--16b18-----16b18----16b18----16b18----16-|
------------------------------------------------------------------------------------------------------------------|
------------------------------------------------------------------------------------------------------------------|
------------------------------------------------------------------------------------------------------------------|
------------------------------------------------------------------------------------------------------------------|

-------1---------------------------------------1-----1-----1-----------|
-----1---4-1-----------------------------------------------------------|
-3b5---------3b-1-4b5r4p1------------------3b5---3b5---3b5---3b5r3p1---|
--------------------------3------------------------------------------3-|
-----------------------------------------------------------------------|
-----------------------------------------------------------------------|

----------------------------------------------|
-11b13-11b13-11b13-11b13-11b13-11b13r11-------|
----------------------------------------13-10-|
----------------------------------------------|
----------------------------------------------|
----------------------------------------------|
            
Hard to play? Try these video lessons and learn fast. | Correct




comments powered by Disqus
↑ Back to top | Tablatures and chords are parodies/interpretations of the original songs. You may use it for private study, scholarship, research or language learning purposes only