>
 >
No One To Depend On

No One To Depend On Guitar Tabs

Carlos Santana - No One To Depend On chords, tabs, tablatures, lyrics

Guitar lessons | Add/correct | Request | Top 50 tabs Artists:  A B C D E F G H I J K L M N O P Q R S T U V W X Y Z 0-9

No One To Depend On Guitar Tabs – Carlos Santana

CD, Sheet music, Poster

Do you like No One To Depend On? Share with your friends now
TabsTabs v2
           No One To Depend On (M. Carabello, C. Escovedo, G. Rolie)
                                  Santana
                                Santana III

intro:
|-5-------0-----------------------------5--------6--5---|
|-------------3-------------3--5--6--3----------------3-|
|-------------------------------------------------------|
|-------------------------------------------------------|
|-------------------------------------------------------|
|-------------------------------------------------------|


|-------------------------------------------|
|-------------------------------------------|
|-----5h7----5-7-5-------5h7----5-7-5-------|
|-5-5----------------8-5--------------8-5---|
|-------------------------------------------|
|-------------------------------------------|

|-5------5------------------5------5-----------6-|
|------8---8---8---5-------------8---8---5-6-8---|
|--------------------7p5-------------------------|
|------------------------5-----------------------|
|------------------------------------------------|
|------------------------------------------------|

|--------13---------------------------------13-13----13--------15--15-15-|
|-/15--------15-13---15p13---------------15-------15----15-13--15--15-15-|
|--------------------------15-12--15-12----------------------------------|
|------------------------------------------------------------------------|
|------------------------------------------------------------------------|
|------------------------------------------------------------------------|

Rythym for singing:
|------------------------|
|------------------------|
|-3--3-5----5--5-3---3---|
|-3--3-5----5--5-3-5-3-5-|
|------------------5---5-|
|------------------------| repeat 4X
             
     
I ain't got nobody that I can depend on
I ain't got nobody that I can depend on

|-3--3-3-3--3-3--3-3-3----3--3-3-3--3-3--3-3-3-|
|-3--3-3-3--3-3--3-3-3----3--3-3-3--3-3--3-3-3-|
|-3--3-3-3--3-3--3-3-3----3--3-3-3--3-3--3-3-3-|
|-5--5-5-5--5-5--5-5-5----5--5-5-5--5-5--5-5-5-|
|-5--5-5-5--5-5--5-5-5----5--5-5-5--5-5--5-5-5-|
|-3--3-3-3--3-3--3-3-3----3--3-3-3--3-3--3-3-3-|

|-18--18-18-18-18-18-18-18-18-18-18-18-18-18-18-18-18-18-18-18-18--20\-|
|-20--20-20-20-20-20-20-20-20-20-20-20-20-20-20-20-20-20-20-20-20------|
|----------------------------------------------------------------------|
|----------------------------------------------------------------------|
|----------------------------------------------------------------------|
|----------------------------------------------------------------------|

 I ain't got nobody          that I can depend on
|-------------------------------------------------3--3-3-5-|
|-------------------------------------------------3--3-3-5-|
|--------3----------5-5-5-5-----------------------3--3-3-5-|
|--------3----------5-5-5-5-----------------------3--3-3-5-|
|----------------------------------------------------------|
|----------------------------------------------------------|
|----------------------------------------------------------|

 I ain't got nobody          that I can depend on
|-------------------------------------------------3--3-3-5-|
|-------------------------------------------------3--3-3-5-|
|--------3----------5-5-5-5-----------------------3--3-3-5-|
|--------3----------5-5-5-5-----------------------3--3-3-5-|
|----------------------------------------------------------|
|----------------------------------------------------------|


|----------------------------------------------------|
|-5h6--5------5h6--5h6--5---------6--5------5b6-5b6--|
|--------7--7-------------7-----7------7--7----------|
|---------------------------8------------------------|
|----------------------------------------------------|
|----------------------------------------------------|

                 
Ain't got no one    (No tengo nadie)          
|------------------------------------------|
|------------------------------------------|
|-----------------3--3-5---5--5-3----------|
|-----------------3--3-5---5--5-3--5p3---5-|
|--------------------------------------5---|
|------------------------------------------|

    That I, no one  (No tengo nadie) 
|------------------------------------------|
|------------------------------------------|
|-----------------3--3-5---5--5-3----------|
|-----------------3--3-5---5--5-3--5p3---5-|
|--------------------------------------5---|
|------------------------------------------|

That I can depend on (No tengo nadie)
|-------------------------------------------|
|-------------------------------------------|
|------------------3--3-5---5--5-3----------|
|------------------3--3-5---5--5-3--5p3---5-|
|---------------------------------------5---|
|-------------------------------------------|

Ain't got no one   (No tengo nadie)          
|------------------------------------------|
|------------------------------------------|
|-----------------3--3-5---5--5-3----------|
|-----------------3--3-5---5--5-3--5p3---5-|
|--------------------------------------5---|
|------------------------------------------|

    That I, no one  (No tengo nadie) 
|------------------------------------------|
|------------------------------------------|
|-----------------3--3-5---5--5-3----------|
|-----------------3--3-5---5--5-3--5p3---5-|
|--------------------------------------5---|
|------------------------------------------|

That I can depend on (No tengo nadie)
|------------------------------------------3-|
|------------------------------------------3-|
|------------------3--3-5---5--5-3---------3-|
|------------------3--3-5---5--5-3--5p3----5-|
|---------------------------------------5--5-|
|------------------------------------------3-|



intro to guitar solo:
|-----------------------------------|-----------------------------------|
|-----------------------------------|-----------------------------------|
|--------------------------3-3----3-|--------------------------3-3----3-|
|----------------------3-5------5---|----------------------3-5------5---|
|---1-3-3--1-3-1-3------------------|---1-3-3--1-3-1-3------------------|
|-3---------------------------------|-3---------------------------------|

|-----------------------------------|-----------------------------------|
|-----------------------------------|-----------------------------------|
|--------------------------3-3----3-|--------------------------3-3----3-|
|----------------------3-5------5---|----------------------3-5------5---|
|---1-3-3--1-3-1-3------------------|---1-3-3--1-3-1-3------------------|
|-3---------------------------------|-3---------------------------------|

|-----------------------------------|-----------------------------------|
|-----------------------------------|-----------------------------------|
|--------------------------3-3----3-|--------------------------3-3----3-|
|----------------------3-5------5---|----------------------3-5------5---|
|---1-3-3--1-3-1-3------------------|---1-3-3--1-3-1-3------------------|
|-3---------------------------------|-3---------------------------------|

|-----------------------------------|-----------------------------------|
|-----------------------------------|-----------------------------------|
|--------------------------3-3----3-|--------------------------3-3----3-|
|----------------------3-5------5---|----------------------3-5------5---|
|---1-3-3--1-3-1-3------------------|---1-3-3--1-3-1-3------------------|
|-3---------------------------------|-3---------------------------------|

Guitar Solo 1:
|-18----18----18----------|
|----20----20----20---3/--|
|---------------------3/--|
|---------------------3/--|
|-------------------------|
|-------------------------|

|-13b15--15-15-----------------20-b-22---20-b18-20p18p15-15-15-|
|----------------15p13p11--------------------------------------|
|--------------------------------------------------------------|
|--------------------------------------------------------------|
|--------------------------------------------------------------|
|--------------------------------------------------------------|

|------------------------------------------------------------------|
|-18p15----15---------18b20--20-20--20-20--20--18b20--20-20--20-20-|
|-------17----17-15------------------------------------------------|
|------------------------------------------------------------------|
|------------------------------------------------------------------|
|------------------------------------------------------------------|

|-------------------------------|
|-18-15-18p15----15-------------|
|-------------17----17-15h17-15-|
|-------------------------------|
|-------------------------------|
|-------------------------------|

|-------------------------------------------------|
|----17-17----17-17----17-17----17-17----17-17----|
|----17-17----17-17----17-17----17-17----17-17----|
|-20-------20-------20-------20-------20-------20-|
|-------------------------------------------------|
|-------------------------------------------------|

|-------------------------------------------------------|
|----15-15----15-15----15-15----15-15----15-15----------|
|----15-15----15-15----15-15----15-15----15-15----------|
|-17-------17-------17-------17-------17-------17p15----|
|----------------------------------------------------17-|
|-------------------------------------------------------|

|---------------------------------------------------------|
|---------------------------------------------------------|
|-2h3p2h3p2h3p2h3p2h3p2hp3p2p0h3p2p0h3p2p0h3p2p0h3p2p0-/5-|
|---------------------------------------------------------|
|---------------------------------------------------------|
|---------------------------------------------------------|

|-----------------------------------------------3-5-|
|-----------------------------------------3-5-6-----|
|---------------------------------0-2-3-5-----------|
|-0-3-2-3-0-3-2-3-0-3-2-3-0-3-2-3-------------------|
|---------------------------------------------------|
|---------------------------------------------------|

Guitar Solo 2:
|------------------------------------15--------------------------------|
|-------13-15p13----13---------13b15----15-13-13h15p13----13-----------|
|-12-15----------15----15-12---------------------------15----15-12--12-|
|----------------------------------------------------------------------|
|----------------------------------------------------------------------|
|----------------------------------------------------------------------|

|-------------------13-----------------15-----15-----15-----15-----15-|
|-------13----13-15----15-13-15--13b15-----15-----15-----15-----15----|
|-15-12----15---------------------------------------------------------|
|---------------------------------------------------------------------|
|---------------------------------------------------------------------|
|---------------------------------------------------------------------|

|-15--15-15-15-----------------------------------------------------------|
|-15--15-15-15--15p13----13----------------------------------------------|
|---------------------15----15-12-15p12----12----------------------12-15-|
|---------------------------------------15----15-12-15p12----12-15-------|
|---------------------------------------------------------15-------------|
|------------------------------------------------------------------------|

|-------------------------------------------------------|
|-17--17p15--------17--17---------15--15----15----15----|
|-17--17p15--------17--17p15------15--15----15----15----|
|-----------17-17------------17----------17----17----17-|
|-------------------------------------------------------|
|-------------------------------------------------------|

|-----------------------------------------------------|
|-15--18p15----15----------------------15-18p15----15-|
|-----------17----17-15-17p15----15-17----------17----|
|-----------------------------17----------------------|
|-----------------------------------------------------|
|-----------------------------------------------------|

|-20b22--22-22-22b20-18----20p18-15--15-15-|
|-----------------------20-----------------|
|------------------------------------------|
|------------------------------------------|
|------------------------------------------|
|------------------------------------------|

|-15p13----13---------------------------|
|-------15-----15p13----13--13p15-------|
|--------------------15-----------15-12-|
|---------------------------------------|
|---------------------------------------|

|-3-3--------------------------------------|
|-3---6-3-6p3---3---------------3--3--3--3-|
|-3-----------5---5-3-5p3---3-5------------|
|-------------------------5----------------|
|------------------------------------------|
|------------------------------------------|

|----------------------------------------------------------------------------|
|-3---3--------------------------------------------------------------------3-|
|---3---5-3-5p3---3-------------------------------------------3-5p3---3--5---|
|---------------5---3-5p3---3---------------------3-5p3---3-5-------5--------|
|-------------------------5---5-3-5p3---5p3---3-5-------5--------------------|
|-------------------------------------6-----6--------------------------------|

|-3--3-3-3--------------------------3--3-3-3-3--3-|
|----------6-3-6p3---3----------------------------|
|------------------5---5-3-5p3---3----------------|
|------------------------------5------------------|
|-------------------------------------------------|
|-------------------------------------------------|

|-3---------------------------------------3-6-8-8b10--10b8-6---|
|---6-3-6p3---3---------------3-6p3---3-6--------------------8-|
|-----------5---5-3-5p3---3-5-------5--------------------------|
|-----------------------5--------------------------------------|
|--------------------------------------------------------------|
|--------------------------------------------------------------|

|-----5-6p5---5------6p5---5------6-8-6-8p6-----|
|-5-8-------8---8-5------8---8-8------------8-8-|
|-----------------------------------------------|
|-----------------------------------------------|
|-----------------------------------------------|
|-----------------------------------------------|

|-----13----13------------------------15--|
|-/15----15----15-13-15p13----13----------|
|--------------------------15-----15------|
|-----------------------------------------|
|-----------------------------------------|
|-----------------------------------------|

|-15p13----13----------------------------|
|-------15----15-13-15p13----13----------|
|-------------------------15----15-12-12-|
|----------------------------------------|
|----------------------------------------|
|----------------------------------------|

|-------------------------------------|
|-15b13-15b13-15b13-15b13-15b13-15b13-|
|-------------------------------------|
|-------------------------------------|
|-------------------------------------|
|-------------------------------------|

|-------------------------------------------|
|-15b13-15b13-15b13-15b13-15b13-11-13p11----|
|----------------------------------------12-|
|-------------------------------------------|
|-------------------------------------------|
|-------------------------------------------|

|-----------------------------------|-----------------------------------|
|-----------------------------------|-----------------------------------|
|--------------------------3-3----3-|--------------------------3-3----3-|
|----------------------3-5------5---|----------------------3-5------5---|
|---1-3-3--1-3-1-3------------------|---1-3-3--1-3-1-3------------------|
|-3---------------------------------|-3---------------------------------|

End Of Solo

|----------------------------------------------|
|----------------------------------------------|
|-----7----5-7-5-------5h7----5-7-5----7p5-----|
|-5-5--------------8-5---------------------8-5-|
|----------------------------------------------|
|----------------------------------------------|

|-5------5------------------5------5-----------6-|
|------8---8---8---5-------------8---8---5-6-8---|
|--------------------7p5-------------------------|
|------------------------5-----------------------|
|------------------------------------------------|
|------------------------------------------------|

|--------13---------------------------------13-15--15--15-15---------|
|-/15--------15-13---15p13---------------15------------------13--15--|
|--------------------------15-12--15-12------------------------------|
|--------------------------------------------------------------------|
|--------------------------------------------------------------------|
|--------------------------------------------------------------------|

|----------------------------|
|-------13-13-13-15p13-------|
|-12-15----------------12-15-|
|----------------------------|
|----------------------------|
|----------------------------|

Rythym for singing:
|------------------------|
|------------------------|
|-3--3-5----5--5-3---3---|
|-3--3-5----5--5-3-5-3-5-|
|------------------5---5-|
|------------------------| repeat 2X
             
     
I ain't got nobody that I can depend on (No tengo Nadie)
I ain't got nobody that I can depend on (No tengo Nadie)

Outro:
|-3--3-3-3--3-3--3-3-3----3--3-3-3--3-3--3-3-3-|
|-3--3-3-3--3-3--3-3-3----3--3-3-3--3-3--3-3-3-|
|-3--3-3-3--3-3--3-3-3----3--3-3-3--3-3--3-3-3-|
|-5--5-5-5--5-5--5-5-5----5--5-5-5--5-5--5-5-5-|
|-5--5-5-5--5-5--5-5-5----5--5-5-5--5-5--5-5-5-|
|-3--3-3-3--3-3--3-3-3----3--3-3-3--3-3--3-3-3-|

|-18--15-15-15--15-15-15--15-15----5--1-1-1--1-1-1------|
|-15--15-15-15--15-15-15--15-15----3--3-3-3--3-3-3--3-3-|
|-15--15-15-15--15-15-15--15-15----3--3-3-3--3-3-3--3-3-|
|-------------------------------------------------------|
|-------------------------------------------------------|
|-------------------------------------------------------|

(Fade Out)
|-3-3---3-3---3-3--3-3--3-3--3-3--3-3--3-3-|
|-3-3---3-3---3-3--3-3--3-3--3-3--3-3--3-3-|
|-3-3---3-3---3-3--3-3--3-3--3-3--3-3--3-3-|
|-5-5---5-5---5-5--5-5--5-5--5-5--5-5--5-5-|
|-5-5---5-5---5-5--5-5--5-5--5-5--5-5--5-5-|
|-3-3---3-3---3-3--3-3--3-3--3-3--3-3--3-3-|





Comments


Popular Carlos Santana tabs & chords
Shades Of Time Chords
Black Magic Woman 4 Tabs
Game Of Love 2 Tabs
Im Feeling You 1 Tabs
Love Of My Life Live Tabs
Se A Cabo Tabs
Singing Winds Crying Beasts 1 Tabs
Trinity Intro Tabs
Twisted Tabs
You Are My Kind Tabs


Song lyrics



↑ Back to top | Tablatures and chords are parodies/interpretations of the original songs. You may use it for private study, scholarship, research or language learning purposes only
© 2014 AZChords.com Contact us | Privacy policy | DMCA | Add/correct tabs | Request tabs | Top 50 tabs