>
 >
Just Feel Better 4

Just Feel Better 4 Guitar Tabs

Carlos Santana - Just Feel Better 4 chords, tabs, tablatures, lyrics

Guitar lessons | Add/correct | Request | Top 50 tabs Artists:  A B C D E F G H I J K L M N O P Q R S T U V W X Y Z 0-9

Just Feel Better 4 Guitar Tabs – Carlos Santana

CD, Sheet music, Poster

Do you like Just Feel Better 4? Share with your friends now
ChordsChords v2TabsTabs v2Tabs v3Tabs v4Tabs v5Tabs v6Ukulele
INTRO
11----10h11p10------------------------------------------------------------------------------|
----------------11------11/13\11--11-------------------------------------------------13\11--|
--------------------12---------------------8--10/12\10/12---10--8--8---8---8h10p8-----------|
----------------------------------------8---------------------------------------------------|
--------------------------------------------------------------------------------------------|
--------------------------------------------------------------------------------------------|

------11--11-------11--11------11--11-------11------11--13--13b--13b-|
--13-----------13----------13-----------13------13-------------------|
---------------------------------------------------------------------|
---------------------------------------------------------------------|
---------------------------------------------------------------------|
---------------------------------------------------------------------|


VERSES
She said I feel stranded..and I can’t tell anymore……..If im comin’ or im goin…
-------------------------|---------------------------|----------------------------------|
-------------------------|---------------------------|11br------------------------------|
-------------------------|---------------------------|------10/12--10/12--10--8--h10----|
--------10---13/15\13----|10br-10--10--10------------|----------------------------------|
-------------------------|-----------------13--13----|----------------------------------|
11--13-------------------|---------------------------|----------------------------------|

It’s not how I planned it…           I’ve got a key to the door..but it just won’t open
------------------------------------|-----11------11--h13------|10b~~~r10--------------|
------------------------------------|11b------13---------------|-----------11----------|
----8--10--10br--10--8--10--8--8----|--------------------------|-----------------------|
10----------------------------------|--------------------------|-----------------------|
------------------------------------|--------------------------|-----------------------|
------------------------------------|--------------------------|-----------------------|

I know, I know, I know, part of me says let it go..That life happens for a reason..
--------------------------------------------------|-------------------------------|
-----------------8--------------------------------|-------------------------------|
10b---10--8--10-----10---8------8-----------------|12b-r--------------------------|
----------------------------10--------------------|-------13--10------------------|
--------------------------------------------------|-------------------------------|
--------------------------------------------------|---------------13/11/8---------|

I don’t, I don’t, I don’t, cause it never worked before               But this time
---------------------------------------------------------------------|-------------|
--------------------------------------8---------8-----------8--------|-------------|
-------------------------------8--10------8h10-----10---10-----------|----8--------|
---------------------------10----------------------------------10----|10-----------|
---------------------------------------------------------------------|-------------|
---------------------------------------------------------------------|-------------|

This time         I’m gonna try anything to just feel better
------------------|-----------------------------------------|
13----------------|-----------------------------------------|
----12--10--------|---------12\-----------------------------|
------------13----|---------12\-----------------------------|
------------------|---------10\-----------------------------|
------------------|-----------------------------------------|

CHORUS
Tell me what to do…..         You know I cant see through the haze around me
-----------------------------|---------------------------------------------------------|
-----------------------------|---------------------------------------------------------|
--------------10/12\10--10---|-----------------------------------------------------10--|
---------10------------------|----------------10--13---13---10--13---10--13---13-------|
-----------------------------|--------10--13-------------------------------------------|
11---13----------------------|11--13---------------------------------------------------|

             And I do anything to just feel better
------------|------------------8--11--8-----------------------------------|
------------|----------------------------11--8----------------------------|
------------|-----------------------------------10--8---------------------|
13p11h13----|------------------------------------------10--8--------------|
------------|-------------------------------------------------10--8-------|
------------|--------------------------------------------------------11---|


I can’t find my way…..        Girl I need a change……………
-----------------------------|--------------------------------------------------------|
-----------------------------|------------------13-------13------13h16p13----13--16b--|
--------------10/12\10--10---|15---12--15--15b------15b------15b----------15----------|
---------10------------------|--------------------------------------------------------|
-----------------------------|--------------------------------------------------------|
11---13----------------------|--------------------------------------------------------|

And I do anything to just feel better, any little thing that just feel better
-----------------------------------------------------------------------------|
13------13h16p13-------------------------------------------------------------|
----15------------15--12-------------------------------11\-------------------|
--------------------------15--13-----------------------11\-------------------|
----------------------------------15--13---------------13\-------------------|
------------------------------------------15--13--11-------------------------|

VERSE
She said I need you to hold me, I’m a little far from the shore, and I’m afraid of sinking
------------------------------|--------------------------------|-------------------------|
11----------------------------|--------------------------------|-------------------------|
----12--12---10--8--8--h10----|8---10--------------8-----------|8/10---8-----------------|
------------------------------|8-------10--10---10-------------|----------10--10---------|
------------------------------|--------------------------------|-------------------------|
------------------------------|--------------------------------|-------------------------|

You’re the only one who knows me, and who doesn’t ignore…      That my soul is weeping…
--------------------------------|-----------------------------|-----------------------|
----------------------8---------|11br-11br--------------------|-----------------------|
-----------8--8---10-----8------|----------12--10---12\10\8---|12--10-----------------|
8--10--10-----------------------|-----------------------------|---------13\10\8-------|
--------------------------------|-----------------------------|-----------------------|
--------------------------------|-----------------------------|-----------------------|

I know, I know, I know, part of me says let it go…              Everything must have a
---------------------------------------------------------------|----------------------|
-----------------------------------------------------8---------|----------------------|
---------------------------8------10/12---10--8--10-----8--h10-|----------------------|
-----------------------10-----10-------------------------------|13x13x13--------------|
---------------------------------------------------------------|13x13x13--------------|
---------------------------------------------------------------|----------13\11\8-----|

Season. Round and round it goes, and every day’s the one before, But this time, this time
------|------------------------|----11--13--15--13--11---------|--------------|----------|
------|------------------------|13-----------------------------|--------------|----------|
------|------------------------|-------------------------------|13-13-13-13---|13-13-13--|
------|--------10--13--13------|-------------------------------|13-13-13-13---|13-13-13--|
------|10--13------------------|-------------------------------|11-11-11-11---|11-11-11--|
------|------------------------|-------------------------------|--------------|----------|

I’m gonna try anything that just feels better
---------------------------------------------------|
----------------13----13----13---------------------|
-------------12----12----12----12--10--10------13--|
-------------------------------------------13--13--|
-----------------------------------------------11--|
---------------------------------------------------|

CHORUS
Tell me what to do…..         You know I cant see through the haze around me
-----------------------------|---------------------------------------------------------|
-----------------------------|---------------------------------------------------------|
--------------10/12\10--10---|-----------------------------------------------------10--|
---------10------------------|----------------10--13---13---10--13---10--13---13-------|
-----------------------------|--------10--13-------------------------------------------|
11---13----------------------|11--13---------------------------------------------------|

             And I do anything to just feel better
------------|------------------------------------------------|
------------|---13----13----13-------------------------------|
------------|12----12----12----12--10--8---------------------|
13p11h13----|-----------------------------10--8--------------|
------------|------------------------------------10--8-------|
------------|-------------------------------------------11---|


I can’t find my way…..        Girl I need a change……………
-----------------------------|-------------------------------------------------------------|
-----------------------------|------------------13h16p13----13-13h16p13----13-13h16p13h16--|
--------------10/12\10--10---|15---12--15--15b-----------15-------------15-----------------|
---------10------------------|-------------------------------------------------------------|
-----------------------------|-------------------------------------------------------------|
11---13----------------------|-------------------------------------------------------------|

                 And I do anything that just feel better, anything little thing that just
-----------------------------------------------------------------------------------------|
p13h16p13h16p13-16h18p16h18p16h18p16h18p16h18p16-18b~~~<>16h18p18--15--------------------|
-----------------------------------------------------------------------------------------|
-----------------------------------------------------------------------------------------|
-----------------------------------------------------------------------------------------|
-----------------------------------------------------------------------------------------|

Feel better
-----------|
-----------|
-----------|
-----------|
-----------|
-----------|

I’m tired of holding on…                  To all the things I ought to leave behind, yeah
-----------------------------------------|-----------------------------------------------|
11b~~r11-r11-r11-r11-r11-----------------|--------11-------------------------------------|
-------------------------12--10----------|12--13------10b--r10------10b--r10-------------|
-----------------------------------------|----------------------13-------------13p10-----|
-----------------------------------------|-----------------------------------------------|
--------------------------------13\10\8--|-----------------------------------------------|

It’s really getting old, and…      I think I need a little help this, time.
----11--13--13br--11------13--11--|-------------------------8--8--8--8--10--11--|
13--------------------13----------|8--8--8--9--9-9--11--11----------------------|
----------------------------------|---------------------------------------------|
----------------------------------|---------------------------------------------|
----------------------------------|---------------------------------------------|
----------------------------------|---------------------------------------------|

SOLO!
11---10h11p10---------------------------------11--11--11--11--11--11/13---------------11--|
---------------11------11/13--11-h13---11/13-----------------------------13--13---13------|
-------------------12---------------------------------------------------------------------|
------------------------------------------------------------------------------------------|
------------------------------------------------------------------------------------------|
------------------------------------------------------------------------------------------|


--------11--11--11---11---11---13br-13br--------11--13--15--18----18--18---15h18p15h18p15h--|
-11/13--------------------------------------11----------------------------------------------|
--------------------------------------------------------------------------------------------|
--------------------------------------------------------------------------------------------|
--------------------------------------------------------------------------------------------|
--------------------------------------------------------------------------------------------|


18p15h18p15h18p15-18b---18b--18b--18b--18--15h18p15--13------13--15-------13---------------|
---------------------------------------------------------16----------16-------13--13---13--|h
-------------------------------------------------------------------------------------------|
-------------------------------------------------------------------------------------------|
-------------------------------------------------------------------------------------------|
-------------------------------------------------------------------------------------------|

                I’m gonna try anything to just feel better
----------------------------------------------------------|
16--------------------------------------------------------|
-----13-13-13-15---13\------------------------------------|
-----13-13-13-15---13\------------------------------------|
-----11-11-11-13---11\------------------------------------|
----------------------------------------------------------|

Chorus #2
Tell me what to do…..      You know I can’t see though the haze around me…
------------13b--13--h15--|--------------15--18--15--18b--18b--15h18p15--13--15----------|
--------11----------------|------------------------------------------------------16--16--|
10--12--------------------|--------------------------------------------------------------|
--------------------------|--------------------------------------------------------------|
--------------------------|--------------------------------------------------------------|
--------------------------|--------------------------------------------------------------|

                      And I do anything to just feel better
-13------------------|11-11-11-11-11-11--11--8--------------------------------|
-----13--13---13h16--|11-11-11-11-11-11---------11--8-------------------------|
---------------------|---------------------------------10--8--10--10--10--12--|
---------------------|----------------------------------------------------12--|
---------------------|--------------------------------------------------------|
---------------------|--------------------------------------------------------|

And I can’t find my way…   God I need a change
------------13b--13--h15--|18---15--18--18b---18b-18b-18b-18b-18--15h18p15--13--15-|
--------11----------------|--------------------------------------------------------|
10--12--------------------|--------------------------------------------------------|
--------------------------|--------------------------------------------------------|
--------------------------|--------------------------------------------------------|
--------------------------|--------------------------------------------------------|

And I do anything to just feel better, any little thing that just feel better
15-15-15--15-15-15--15-15--15--15-15-|-15-15-15-15-15--15-15--11---10h11p10--------------|
15-15-15--15-15-15--15-15--15--15-15-|-15-15-15-15-15--15-15-----------------11------11--|
-------------------------------------|-------------------------------------------12------|
-------------------------------------|---------------------------------------------------|
-------------------------------------|---------------------------------------------------|
-------------------------------------|---------------------------------------------------|

            (SLOW)
-------------11---10h11p10------------------------|
13\11--11-------------------11------11/13\11--11--|
--------------------------------12----------------|
--------------------------------------------------|
--------------------------------------------------|
--------------------------------------------------|


P.S - NOTE
THE LYRICS AND THE TABS DO NOT MATCH AT THE SAME TIME, MOST OF THE TIME, SO YOU’VE GOTTA 
WHEN YOU PLAY WHICH NOTE AT WHAT TIME YOURSELF.

I know there’s way to many word ‘time’ in there and the sentence is kinda confusing but 
the heck! Try to figure out what it means. Btw, there might be a few mistakes in here, I 
it but there might be. So try to fix that.





Comments


Popular Carlos Santana tabs & chords
Evil Ways Chords
Bailando Aquatic Park Tabs
Europa Tabs
Jingo 1 Tabs
Love Of My Life Intro Tabs
Maria Maria Tabs
Mother Africa Tabs
Smooth 3 Tabs
This Boys Fire Intro Tabs
I Am Somebody Ukulele


Song lyrics



↑ Back to top | Tablatures and chords are parodies/interpretations of the original songs. You may use it for private study, scholarship, research or language learning purposes only
© 2014 AZChords.com Contact us | Privacy policy | DMCA | Add/correct tabs | Request tabs | Top 50 tabs