» » »

Into The Night Tabs (ver.8)

Artists:  A B C D E F G H I J K L M N O P Q R S T U V W X Y Z # 

Into The Night Tabs (ver.8)

Carlos Santana
Rating:
0/5 (0 votes)

Tabs too difficult? Try these video lessons and learn fast.
                

A Wah pedal is used through out the solo, as he starts with the (10 part)
he open and closes the pedal alternatively a couple of times. I just tabbed
the notes, dont have a wah pedal so it might not be perfect and dont really
know how it would sound with a pedal, but i guess notes are close to
what he actually plays so it would not be that bad.

Solo

e|-------------------------------------------------------|
B|--10-10-10-10--10-8------------------------------------|
G|--------------------9-7-5-4-2--------------------------|
D|----------------------------------2-0-2----------------|
A|--------------------------------0-------3-5-5-3-2-2-0--|
E|-------------------------------------------------------|

                                v ^ v ^
e|----10-8-7-5--12-10-8-8-7-5---8-8-8-8-10----------8-5--|
B|-10--------------------------------------10--10-8------|
G|-------------------------------------------------------|
D|-------------------------------------------------------|
A|-------------------------------------------------------|
E|-------------------------------------------------------|

e|-12-10-8-8-7-5----10(b)-8-7-5--12-10(b)-8-7-5-8-8-8-10-|
B|-------------------------------------------------------|
G|-------------------------------------------------------|
D|-------------------------------------------------------|
A|-------------------------------------------------------|
E|-------------------------------------------------------|

        (Two 10(b) : Full bend till the next note)

e|-5-5-5-5-5--3-0-------------------8-8-10-5-5-3-(5-21)*-|
B|----------------5-3-1-0--------------------------------|
G|------------------------5-5----------------------------|
D|----------------------------7p5-7----------------------|
A|-------------------------------------------------------|
E|-------------------------------------------------------|

Ok honestly speaking i couldnt really figure out what he does at the end, but it sounds 
of that sort if u slide ur fingers on the last
three strings till the 21st fret after playing the 5. To get the exact
sound USE A WAH PEDAL :) n just play around a bit with the tab, bends and slides does 
it sound better.

I am sure there is alot of room for improvements, so for any queries or
            
Tabs too difficult? Try these video lessons and learn fast.


comments powered by Disqus
↑ Back to top | Tablatures and chords are parodies/interpretations of the original songs. You may use it for private study, scholarship, research or language learning purposes only