>
 >
Into The Night

Into The Night Guitar Tabs

Carlos Santana - Into The Night chords, tabs, tablatures, lyrics

Guitar lessons | Add/correct | Request | Top 50 tabs Artists:  A B C D E F G H I J K L M N O P Q R S T U V W X Y Z 0-9

Into The Night Guitar Tabs – Carlos Santana

CD, Sheet music, Poster

Do you like Into The Night? Share with your friends now
Bass TabsChordsChords v2TabsTabs v2Tabs v10Tabs v3Tabs v4Tabs v5Tabs v6Tabs v7Tabs v8Tabs v9Ukulele
Into the Night tab
Carlos Santana feat Chad Kroger
standard tuning

INTRO
Chad

Chords
 Am	C	G	D	Am	C	G	D
E|0	0	3	2	0	0	3	2
B|1	1	3	3	1	1	3	3
G|2	0	0	2	2	0	0	2
D|2	2	0		2	2	0	
A|0	3	2		0	3	2	
E|0	0	3		0	0	3	

*Santana plays after each chord is struck
Santana
Am           C         G       D       Am      C     G     D
E|-----------|---------|----3-5-5|5------|----------------------------|
B|---1-0-----|--1-3-5-3|--5------|--3-1-1|----1s3s5h8-8-3-3-3-1-1-1p0-|
G|-2-----2-0-|---------|---------|-------|---2------------------------2|
D|-----------|---------|---------|-------|-2--------------------------|
A|-----------|---------|---------|-------|----------------------------|
E|-----------|---------|---------|-------|----------------------------|


Verse 1-
Chad
Am                         C 
Like a gift from the heavens, it was easy to tell, 
G                       D
It was love from above, that could save me from hell,
Am                        C
She had fire in her soul it was easy to see,
G                       D
how the devil himself could be pulled out of me,
Am                          C
There were drums in the air as she started to dance, 
G                        D
Every soul in the room keeping time with there hands,

Santana (comes in at “there were…”)
e|--------------------------------------------|
B|--0-1-0-------------------5-8-10-10-5-3-1-1-|
G|--------2-0----5-7-9-7----------------------|
D|--------------------------------------------|
A|--------------------------------------------|
E|--------------------------------------------|

And we sang… 

Chad
Chorus
Am       C
Ay oh ay oh ay oh ay, 
G                  D
And the voices bang like the angels sing, 

We’re singing… 
Am         C
Ay oh ay oh ay oh ay, 
G                  D
And we danced on into the night, 
Am
Ay oh ay oh, 
C
Ay oh ay oh, 
G                  D
And we danced on into the night,

Santana
Chorus
e|--------0h3--5-----------------------|
B|------1--------3-3-3-----------------|
G|----2-----------------5-7-7-5-4-2-0--|
D|--2----------------------------------|
A|-------------------------------------|
E|-------------------------------------|

Verse 2(same chords as verse one)-
Like a piece to the puzzle that falls into place, 
You could tell how we felt from the look on our faces, 
we was spinning in circles with the moon in our eyes, 
The room left them moving between you and I, 
We forgot where we were and we lost track of time, 
And we sang to the wind as we danced through the night, 
And we sang… 

Chad
Chorus
Am       C
Ay oh ay oh ay oh ay, 
G                  D
And the voices bang like the angels sing, 

We’re singing… 
Am         C
Ay oh ay oh ay oh ay, 
G                  D
And we danced on into the night, 
Am
Ay oh ay oh, 
C
Ay oh ay oh, 
G                  D
And we danced on into the night,

Santana
Chorus x2
e|--------0h3--5-----------------------|
B|------1--------3-3-3-----------------|
G|----2-----------------5-7-7-5-4-2-0--|
D|--2----------------------------------|
A|-------------------------------------|
E|-------------------------------------|

Santana
Solo
e|-------------------------------------------------------|
B|--10-10-10-10--10-8------------------------------------|
G|--------------------9-7-5-4-2--------------------------|
D|----------------------------------2-0-2----------------|
A|--------------------------------0-------3-5-5-3-2-2-0--|
E|-------------------------------------------------------|

                                v ^ v ^
e|----10-8-7-5--12-10-8-8-7-5---8-8-8-8-10----------8-5--|
B|-10--------------------------------------10--10-8------|
G|-------------------------------------------------------|
D|-------------------------------------------------------|
A|-------------------------------------------------------|
E|-------------------------------------------------------|

e|-12-10-8-8-7-5----10(b)-8-7-5--12-10(b)-8-7-5-8-8-8-10-|
B|-------------------------------------------------------|
G|-------------------------------------------------------|
D|-------------------------------------------------------|
A|-------------------------------------------------------|
E|-------------------------------------------------------|

	(Two 10(b) : Full bend till the next note)

e|-5-5-5-5-5--3-0-------------------8-8-10-5-5-3-5s21----|
B|----------------5-3-1-0--------------------------------|
G|------------------------5-5----------------------------|
D|----------------------------7p5-7----------------------|
A|-------------------------------------------------------|
E|-------------------------------------------------------|

Bridge
Chad
Am	C	G	D	Am	C	G	D
E|0	0	3	2	0	0	3	2
B|1	1	3	3	1	1	3	3
G|2	0	0	2	2	0	0	2
D|2	2	0		2	2	0	
A|0	3	2		0	3	2	
E|0	0	3		0	0	3	

Repeat chorus until end





Comments


Popular Carlos Santana tabs & chords
Smooth 2 Bass Tabs
Game Of Love Chords
Im Feeling You Chords
Africa Bamba Tabs
Incident At Neshabur Tabs
No One To Depend On 1 Tabs
Oye Como Va Tabs
Oye Como Va 4 Tabs
Smooth 3 Tabs
Evil Ways Ukulele


Song lyrics



↑ Back to top | Tablatures and chords are parodies/interpretations of the original songs. You may use it for private study, scholarship, research or language learning purposes only
© 2014 AZChords.com Contact us | Privacy policy | DMCA | Add/correct tabs | Request tabs | Top 50 tabs